0
SECTION
2
HEADER
9
$MEASUREMENT
70
1
0
ENDSEC
0
SECTION
2
TABLES
0
TABLE
2
LTYPE
0
LTYPE
72
65
70
64
2
CONTINUOUS
3
______
73
0
40
0
0
ENDTAB
0
TABLE
2
LAYER
0
LAYER
2
DEFAULT_255_2_778
70
0
62
255
6
CONTINUOUS
0
LAYER
2
DEFAULT_255_1_234
70
0
62
255
6
CONTINUOUS
0
ENDTAB
0
ENDSEC
0
SECTION
2
ENTITIES
0
LINE
8
DEFAULT_255_2_778
10
18.6533292
20
-0.3979
11
14.8698292
21
-0.3979
0
LINE
8
DEFAULT_255_2_778
10
2.7968917
20
-0.3979
11
6.3422917
21
-0.3979
0
LINE
8
DEFAULT_255_2_778
10
2.7969126
20
4.8937146
11
6.0902126
21
4.8937146
0
LINE
8
DEFAULT_255_2_778
10
6.0902126
20
4.8937146
11
7.9563126
21
2.9755146
0
LINE
8
DEFAULT_255_2_778
10
2.7969105
20
-5.6895396
11
6.0357105
21
-5.6895396
0
LINE
8
DEFAULT_255_2_778
10
6.0357105
20
-5.6895396
11
7.8711105
21
-3.6390396
0
LINE
8
DEFAULT_255_2_778
10
13.4935126
20
-3.5067938
11
15.3596126
21
-5.6895938
0
LINE
8
DEFAULT_255_2_778
10
15.3596126
20
-5.6895938
11
18.6529126
21
-5.6895938
0
LINE
8
DEFAULT_255_2_778
10
13.3617667
20
2.7770333
11
15.2757667
21
4.8937333
0
LINE
8
DEFAULT_255_2_778
10
15.2757667
20
4.8937333
11
18.6534667
21
4.8937333
0
ARC
8
DEFAULT_255_2_778
10
10.5981752
20
-0.3639526
40
4.267316
50
255.3140747
51
270.0522506
0
ARC
8
DEFAULT_255_2_778
10
10.5868894
20
-0.4190595
40
4.2111492
50
231.7828146
51
255.2725285
0
ARC
8
DEFAULT_255_2_778
10
10.592902
20
-0.4068232
40
4.2244835
50
198.6477295
51
231.8214134
0
ARC
8
DEFAULT_255_2_778
10
10.6078417
20
-0.4063588
40
4.2387896
50
182.883599
51
198.5891076
0
ARC
8
DEFAULT_255_2_778
10
10.7119125
20
-0.3980902
40
4.3431456
50
179.9970525
51
182.9234743
0
ARC
8
DEFAULT_255_2_778
10
10.6360926
20
-0.393976
40
4.2673276
50
165.3141061
51
180.0522404
0
ARC
8
DEFAULT_255_2_778
10
10.5810215
20
-0.3826981
40
4.2111977
50
141.7831836
51
165.2725787
0
ARC
8
DEFAULT_255_2_778
10
10.5931969
20
-0.388652
40
4.2244479
50
108.6484238
51
141.8218969
0
ARC
8
DEFAULT_255_2_778
10
10.5935834
20
-0.4033871
40
4.2385353
50
92.8837648
51
108.5896832
0
ARC
8
DEFAULT_255_2_778
10
10.6018435
20
-0.5073628
40
4.3427959
50
89.9970545
51
92.9235905
0
ARC
8
DEFAULT_255_2_778
10
10.605961
20
-0.4321826
40
4.2676176
50
75.3146077
51
90.0522823
0
ARC
8
DEFAULT_255_2_778
10
10.6172899
20
-0.3769304
40
4.2112996
50
51.7838192
51
75.2731355
0
ARC
8
DEFAULT_255_2_778
10
10.6114212
20
-0.3889927
40
4.2244082
50
18.6485458
51
51.8224898
0
ARC
8
DEFAULT_255_2_778
10
10.5966665
20
-0.3893824
40
4.2385152
50
2.8837652
51
18.5897608
0
ARC
8
DEFAULT_255_2_778
10
10.4926708
20
-0.3976435
40
4.3427959
50
359.9970545
51
2.9235905
0
ARC
8
DEFAULT_255_2_778
10
10.5678626
20
-0.4017617
40
4.2676059
50
345.3145763
51
0.0522926
0
ARC
8
DEFAULT_255_2_778
10
10.6231506
20
-0.4130986
40
4.2112511
50
321.7834503
51
345.2730853
0
ARC
8
DEFAULT_255_2_778
10
10.6110274
20
-0.4071712
40
4.2244438
50
288.6478515
51
321.8220063
0
ARC
8
DEFAULT_255_2_778
10
10.6105598
20
-0.392212
40
4.2387694
50
272.8835994
51
288.5891852
0
ARC
8
DEFAULT_255_2_778
10
10.6022902
20
-0.2881211
40
4.3431456
50
269.9970525
51
272.9234743
0
LINE
8
DEFAULT_255_2_778
10
10.6020668
20
-4.6312668
11
10.6020668
21
-4.6312668
0
LINE
8
DEFAULT_255_2_778
10
9.8383511
20
1.5562937
11
10.1129511
21
1.5562937
0
LINE
8
DEFAULT_255_2_778
10
10.1129511
20
1.5562937
11
10.6400511
21
0.0214937
0
LINE
8
DEFAULT_255_2_778
10
10.6400511
20
0.0214937
11
11.1670511
21
1.5562937
0
LINE
8
DEFAULT_255_2_778
10
11.1670511
20
1.5562937
11
11.4427511
21
1.5562937
0
LINE
8
DEFAULT_255_2_778
10
11.4427511
20
1.5562937
11
11.4427511
21
-0.3246063
0
LINE
8
DEFAULT_255_2_778
10
11.4427511
20
-0.3246063
11
11.2300511
21
-0.3246063
0
LINE
8
DEFAULT_255_2_778
10
11.2300511
20
-0.3246063
11
11.2300511
21
0.4079937
0
LINE
8
DEFAULT_255_2_778
10
11.2300511
20
0.4079937
11
11.2498511
21
1.1985937
0
LINE
8
DEFAULT_255_2_778
10
11.2498511
20
1.1985937
11
10.7204511
21
-0.3246063
0
LINE
8
DEFAULT_255_2_778
10
10.7204511
20
-0.3246063
11
10.5577511
21
-0.3246063
0
LINE
8
DEFAULT_255_2_778
10
10.5577511
20
-0.3246063
11
10.0296511
21
1.1945937
0
LINE
8
DEFAULT_255_2_778
10
10.0296511
20
1.1945937
11
10.0507511
21
0.4076937
0
LINE
8
DEFAULT_255_2_778
10
10.0507511
20
0.4076937
11
10.0507511
21
-0.3249063
0
LINE
8
DEFAULT_255_2_778
10
10.0507511
20
-0.3249063
11
9.8380511
21
-0.3249063
0
LINE
8
DEFAULT_255_2_778
10
9.8380511
20
-0.3249063
11
9.8380511
21
1.5559937
0
LINE
8
DEFAULT_255_2_778
10
9.8380511
20
1.5559937
11
9.8383511
21
1.5562937
0
ARC
8
DEFAULT_255_2_778
10
9.3890319
20
-0.4113485
40
3.5296225
50
328.3611743
51
330.2919702
0
ARC
8
DEFAULT_255_2_778
10
10.0470877
20
-0.8171454
40
2.7565066
50
326.1253857
51
328.3672496
0
ARC
8
DEFAULT_255_2_778
10
10.5809935
20
-1.1762211
40
2.1130857
50
323.3474464
51
326.1399986
0
ARC
8
DEFAULT_255_2_778
10
11.0039829
20
-1.4914747
40
1.5855399
50
319.9693475
51
323.362277
0
ARC
8
DEFAULT_255_2_778
10
11.3275745
20
-1.7640785
40
1.1624278
50
315.6181807
51
319.9989044
0
ARC
8
DEFAULT_255_2_778
10
11.5637868
20
-1.9959502
40
0.8314287
50
310.0368351
51
315.6527649
0
ARC
8
DEFAULT_255_2_778
10
11.7228837
20
-2.1862294
40
0.5834015
50
302.5392434
51
310.0951027
0
ARC
8
DEFAULT_255_2_778
10
11.8181314
20
-2.3366005
40
0.4054039
50
292.0317946
51
302.6219519
0
ARC
8
DEFAULT_255_2_778
10
11.8613245
20
-2.4450042
40
0.2887144
50
275.3912212
51
292.1559188
0
ARC
8
DEFAULT_255_2_778
10
11.8662667
20
-2.4809122
40
0.2525056
50
270.0115037
51
275.0402961
0
ARC
8
DEFAULT_255_2_778
10
11.8723532
20
-2.4464197
40
0.2870616
50
233.8314453
51
268.7951948
0
ARC
8
DEFAULT_255_2_778
10
12.0259226
20
-2.2169757
40
0.5630351
50
222.7926315
51
234.9951929
0
ARC
8
DEFAULT_255_2_778
10
12.3899182
20
-1.8755302
40
1.0621064
50
215.6678128
51
222.9695337
0
ARC
8
DEFAULT_255_2_778
10
13.3259035
20
-1.203066
40
2.2146151
50
211.0644104
51
215.6822636
0
ARC
8
DEFAULT_255_2_778
10
17.947783
20
1.5840287
40
7.6118056
50
209.46871
51
211.0831917
0
LINE
8
DEFAULT_255_2_778
10
11.3207585
20
-2.1605853
11
11.3206532
21
-2.160401
0
ARC
8
DEFAULT_255_2_778
10
6.2594034
20
-4.9981009
40
5.8024814
50
29.2781185
51
31.9776773
0
ARC
8
DEFAULT_255_2_778
10
9.7048998
20
-2.8541947
40
1.7444456
50
32.1786303
51
37.4895241
0
ARC
8
DEFAULT_255_2_778
10
10.3924767
20
-2.3255458
40
0.8771338
50
37.424619
51
45.90912
0
ARC
8
DEFAULT_255_2_778
10
10.676764
20
-2.0293335
40
0.4665805
50
45.6735492
51
60.3067078
0
ARC
8
DEFAULT_255_2_778
10
10.7723188
20
-1.8591496
40
0.271413
50
60.0334629
51
89.3770113
0
ARC
8
DEFAULT_255_2_778
10
10.7768275
20
-1.8598958
40
0.2721475
50
90.3279239
51
109.3362806
0
ARC
8
DEFAULT_255_2_778
10
10.810731
20
-1.9586858
40
0.3765914
50
109.2268159
51
120.864872
0
ARC
8
DEFAULT_255_2_778
10
10.8952163
20
-2.1019142
40
0.5428788
50
120.7637785
51
128.8000684
0
ARC
8
DEFAULT_255_2_778
10
11.0423443
20
-2.2861184
40
0.7786274
50
128.744075
51
134.7756415
0
ARC
8
DEFAULT_255_2_778
10
11.2658356
20
-2.5125627
40
1.096786
50
134.7316445
51
139.3154894
0
ARC
8
DEFAULT_255_2_778
10
11.5732387
20
-2.7779255
40
1.5028815
50
139.2837201
51
142.8141339
0
ARC
8
DEFAULT_255_2_778
10
11.9670799
20
-3.0776523
40
1.9978023
50
142.7926969
51
145.5699237
0
ARC
8
DEFAULT_255_2_778
10
12.4555918
20
-3.4132092
40
2.590459
50
145.5573547
51
147.834961
0
ARC
8
DEFAULT_255_2_778
10
13.0506077
20
-3.7880245
40
3.2936874
50
147.8258201
51
149.7198966
0
ARC
8
DEFAULT_255_2_778
10
13.5166715
20
-4.0626458
40
3.8346388
50
149.6877338
51
150.2624851
0
ARC
8
DEFAULT_255_2_778
10
9.2694834
20
-1.7899481
40
0.278633
50
268.0195327
51
314.6080214
0
ARC
8
DEFAULT_255_2_778
10
9.2498458
20
-1.7931355
40
0.2906072
50
317.8073899
51
3.0023112
0
ARC
8
DEFAULT_255_2_778
10
9.1122331
20
-1.7655618
40
0.4279994
50
358.3461197
51
20.4215038
0
ARC
8
DEFAULT_255_2_778
10
9.3105756
20
-1.6983968
40
0.2187767
50
22.0618545
51
94.7339367
0
ARC
8
DEFAULT_255_2_778
10
9.2858632
20
-1.9080989
40
0.4277842
50
89.1083528
51
90.001209
0
ARC
8
DEFAULT_255_2_778
10
9.27526
20
-1.723393
40
0.2433091
50
87.5044424
51
137.786452
0
ARC
8
DEFAULT_255_2_778
10
9.3286577
20
-1.7562688
40
0.3051648
50
139.951442
51
182.7884522
0
ARC
8
DEFAULT_255_2_778
10
9.306391
20
-1.7562047
40
0.4671748
50
136.8862542
51
181.8289025
0
ARC
8
DEFAULT_255_2_778
10
9.2732056
20
-1.7257835
40
0.4221584
50
88.2830628
51
136.8220478
0
ARC
8
DEFAULT_255_2_778
10
9.2999517
20
-1.7590673
40
0.4554709
50
59.8867156
51
91.7736784
0
ARC
8
DEFAULT_255_2_778
10
9.3342086
20
-1.6811638
40
0.3710151
50
42.4989622
51
58.4269451
0
ARC
8
DEFAULT_255_2_778
10
9.2686988
20
-1.7292285
40
0.4518723
50
5.5352959
51
41.3806329
0
ARC
8
DEFAULT_255_2_778
10
8.9722839
20
-1.7804098
40
0.7521739
50
359.8244351
51
7.2380834
0
ARC
8
DEFAULT_255_2_778
10
9.310788
20
-1.7798355
40
0.4136762
50
328.3807158
51
359.6012313
0
ARC
8
DEFAULT_255_2_778
10
9.3288843
20
-1.8033474
40
0.3860834
50
295.6738693
51
329.944205
0
ARC
8
DEFAULT_255_2_778
10
9.377223
20
-2.4913521
40
0.3602362
50
32.4967454
51
70.7222637
0
ARC
8
DEFAULT_255_2_778
10
9.2937163
20
-2.532431
40
0.4528526
50
358.62343
51
31.2039182
0
ARC
8
DEFAULT_255_2_778
10
9.0854233
20
-2.5479092
40
0.6610309
50
359.9995318
51
0.3986422
0
ARC
8
DEFAULT_255_2_778
10
9.1720447
20
-2.561486
40
0.5745698
50
335.6242814
51
1.3534567
0
ARC
8
DEFAULT_255_2_778
10
9.3088719
20
-2.6142367
40
0.4282513
50
316.3912267
51
334.4973345
0
ARC
8
DEFAULT_255_2_778
10
9.3036773
20
-2.6054321
40
0.4380942
50
267.8385306
51
316.0260483
0
ARC
8
DEFAULT_255_2_778
10
9.2696434
20
-2.5960712
40
0.4474862
50
225.2946305
51
272.2426384
0
ARC
8
DEFAULT_255_2_778
10
9.2832548
20
-2.5973996
40
0.4562405
50
179.44385
51
223.9622659
0
ARC
8
DEFAULT_255_2_778
10
9.5067675
20
-2.5734029
40
0.6800135
50
179.9925588
51
181.6489761
0
ARC
8
DEFAULT_255_2_778
10
9.3135047
20
-2.5880902
40
0.3016127
50
177.1920332
51
221.3403485
0
ARC
8
DEFAULT_255_2_778
10
9.2755346
20
-2.6068087
40
0.2609737
50
223.7619076
51
272.5958238
0
ARC
8
DEFAULT_255_2_778
10
9.3021365
20
-2.6049539
40
0.2629765
50
266.7776264
51
311.8421171
0
ARC
8
DEFAULT_255_2_778
10
9.3216804
20
-2.6388715
40
0.2248158
50
313.8981845
51
319.1178825
0
ARC
8
DEFAULT_255_2_778
10
9.2495666
20
-2.5915157
40
0.3105419
50
321.2207749
51
356.9472122
0
ARC
8
DEFAULT_255_2_778
10
8.988465
20
-2.5536217
40
0.5737903
50
354.5564917
51
0.1205297
0
ARC
8
DEFAULT_255_2_778
10
9.2112092
20
-2.5393178
40
0.3512892
50
357.8634017
51
28.3554271
0
ARC
8
DEFAULT_255_2_778
10
9.3137606
20
-2.4931787
40
0.2392659
50
30.2960524
51
44.4531527
0
ARC
8
DEFAULT_255_2_778
10
9.2841297
20
-2.5365411
40
0.2909638
50
46.4624726
51
88.1409655
0
ARC
8
DEFAULT_255_2_778
10
9.2522487
20
-2.753909
40
0.5098557
50
85.3515037
51
89.1115748
0
LINE
8
DEFAULT_255_2_778
10
9.1212542
20
-2.2441146
11
9.1212542
21
-2.0684146
0
LINE
8
DEFAULT_255_2_778
10
9.1212542
20
-2.0684146
11
9.2598542
21
-2.0684146
0
LINE
8
DEFAULT_255_2_778
10
9.0238542
20
-1.7711146
11
8.8394542
21
-1.7711146
0
LINE
8
DEFAULT_255_2_778
10
8.8267542
20
-2.5733146
11
9.0122542
21
-2.5733146
0
LINE
8
DEFAULT_255_2_778
10
9.2601542
20
-2.2441146
11
9.1214542
21
-2.2441146
0
LINE
8
DEFAULT_255_2_778
10
9.1214542
20
-2.2441146
11
9.1212542
21
-2.2441146
0
LINE
8
DEFAULT_255_1_234
10
4.766277
20
6.9999211
11
4.9212896
21
6.9999211
0
LINE
8
DEFAULT_255_1_234
10
4.9212896
20
6.9999211
11
4.9212896
21
6.204779
0
LINE
8
DEFAULT_255_1_234
10
4.5373725
20
5.8160429
11
4.4964106
21
5.8144365
0
LINE
8
DEFAULT_255_1_234
10
4.0747443
20
6.2031727
11
4.0747443
21
6.9999211
0
LINE
8
DEFAULT_255_1_234
10
4.0747443
20
6.9999211
11
4.2273474
21
6.9999211
0
LINE
8
DEFAULT_255_1_234
10
4.2273474
20
6.9999211
11
4.2273474
21
6.2079917
0
LINE
8
DEFAULT_255_1_234
10
4.766277
20
6.2071885
11
4.766277
21
6.9999211
0
ARC
8
DEFAULT_255_1_234
10
4.4859794
20
6.2027928
40
0.4353147
50
343.0898354
51
0.2614217
0
ARC
8
DEFAULT_255_1_234
10
4.5688195
20
6.1796837
40
0.3493402
50
315.3345598
51
342.7641223
0
ARC
8
DEFAULT_255_1_234
10
4.5464644
20
6.2028682
40
0.3815385
50
284.6606969
51
315.2182466
0
ARC
8
DEFAULT_255_1_234
10
4.5009357
20
6.3574755
40
0.5426573
50
273.8500273
51
285.1797701
0
ARC
8
DEFAULT_255_1_234
10
4.4921408
20
6.3916475
40
0.5772268
50
257.6317484
51
270.4238298
0
ARC
8
DEFAULT_255_1_234
10
4.4496606
20
6.2095198
40
0.3902347
50
230.6087562
51
257.9964012
0
ARC
8
DEFAULT_255_1_234
10
4.4364608
20
6.1888802
40
0.3659186
50
227.7440991
51
230.1551448
0
ARC
8
DEFAULT_255_1_234
10
4.4230439
20
6.1727471
40
0.3449568
50
189.2524587
51
227.5916061
0
ARC
8
DEFAULT_255_1_234
10
4.5752126
20
6.2055013
40
0.5004737
50
180.2665968
51
190.1525252
0
ARC
8
DEFAULT_255_1_234
10
4.5974146
20
6.2051918
40
0.3700778
50
179.5665184
51
191.9952995
0
ARC
8
DEFAULT_255_1_234
10
4.4746252
20
6.1778043
40
0.2442808
50
191.6974072
51
215.1404042
0
ARC
8
DEFAULT_255_1_234
10
4.4508167
20
6.1636108
40
0.2166522
50
215.6950207
51
224.8513522
0
ARC
8
DEFAULT_255_1_234
10
4.456391
20
6.1715697
40
0.2262237
50
225.2846858
51
255.0111758
0
ARC
8
DEFAULT_255_1_234
10
4.488787
20
6.2829455
40
0.3421979
50
254.5944985
51
267.9129803
0
ARC
8
DEFAULT_255_1_234
10
4.4962351
20
6.3913903
40
0.4508556
50
267.4689655
51
270.0223026
0
ARC
8
DEFAULT_255_1_234
10
4.4992496
20
6.3324849
40
0.3919604
50
269.5849941
51
281.1843768
0
ARC
8
DEFAULT_255_1_234
10
4.5271261
20
6.1972059
40
0.2538457
50
280.9344262
51
300.9743589
0
ARC
8
DEFAULT_255_1_234
10
4.5483866
20
6.1580688
40
0.2093566
50
301.4980046
51
315.1466847
0
ARC
8
DEFAULT_255_1_234
10
4.5339405
20
6.1699236
40
0.2279656
50
315.5952539
51
345.6678731
0
ARC
8
DEFAULT_255_1_234
10
4.4219921
20
6.2011009
40
0.3441564
50
345.2524969
51
358.6304371
0
ARC
8
DEFAULT_255_1_234
10
4.3202275
20
6.2070916
40
0.4460494
50
358.1735671
51
0.0124524
0
LINE
8
DEFAULT_255_1_234
10
5.6144286
20
7.0055433
11
5.6144286
21
5.8305
0
LINE
8
DEFAULT_255_1_234
10
5.6144286
20
5.8305
11
5.4650382
21
5.8305
0
LINE
8
DEFAULT_255_1_234
10
5.4650382
20
5.8305
11
5.4650382
21
6.8208133
0
LINE
8
DEFAULT_255_1_234
10
5.4650382
20
6.8208133
11
5.1654544
21
6.7107785
0
LINE
8
DEFAULT_255_1_234
10
5.1654544
20
6.7107785
11
5.1654544
21
6.8457117
0
LINE
8
DEFAULT_255_1_234
10
5.1654544
20
6.8457117
11
5.5911365
21
7.0055433
0
LINE
8
DEFAULT_255_1_234
10
5.5911365
20
7.0055433
11
5.6144286
21
7.0055433
0
LINE
8
DEFAULT_255_1_234
10
4.190703
20
-3.5847789
11
4.375433
21
-4.3855432
0
LINE
8
DEFAULT_255_1_234
10
4.375433
20
-4.3855432
11
4.3979218
21
-4.5397526
0
LINE
8
DEFAULT_255_1_234
10
4.3979218
20
-4.5397526
11
4.430852
21
-4.4008035
0
LINE
8
DEFAULT_255_1_234
10
4.430852
20
-4.4008035
11
4.662166
21
-3.5847789
0
LINE
8
DEFAULT_255_1_234
10
4.662166
20
-3.5847789
11
4.7922802
21
-3.5847789
0
LINE
8
DEFAULT_255_1_234
10
4.7922802
20
-3.5847789
11
5.017972
21
-4.4008035
0
LINE
8
DEFAULT_255_1_234
10
5.017972
20
-4.4008035
11
5.050099
21
-4.5421621
0
LINE
8
DEFAULT_255_1_234
10
5.050099
20
-4.5421621
11
5.0749974
21
-4.38474
0
LINE
8
DEFAULT_255_1_234
10
5.0749974
20
-4.38474
11
5.2565146
21
-3.5847789
0
LINE
8
DEFAULT_255_1_234
10
5.2565146
20
-3.5847789
11
5.4115272
21
-3.5847789
0
LINE
8
DEFAULT_255_1_234
10
5.4115272
20
-3.5847789
11
5.1280068
21
-4.7542
0
LINE
8
DEFAULT_255_1_234
10
5.1280068
20
-4.7542
11
4.9874514
21
-4.7542
0
LINE
8
DEFAULT_255_1_234
10
4.9874514
20
-4.7542
11
4.7464993
21
-3.9020326
0
LINE
8
DEFAULT_255_1_234
10
4.7464993
20
-3.9020326
11
4.7280263
21
-3.8128803
0
LINE
8
DEFAULT_255_1_234
10
4.7280263
20
-3.8128803
11
4.7095533
21
-3.9020326
0
LINE
8
DEFAULT_255_1_234
10
4.7095533
20
-3.9020326
11
4.4597662
21
-4.7542
0
LINE
8
DEFAULT_255_1_234
10
4.4597662
20
-4.7542
11
4.3192108
21
-4.7542
0
LINE
8
DEFAULT_255_1_234
10
4.3192108
20
-4.7542
11
4.0364936
21
-3.5847789
0
LINE
8
DEFAULT_255_1_234
10
4.0364936
20
-3.5847789
11
4.190703
21
-3.5847789
0
LINE
8
DEFAULT_255_1_234
10
6.0323806
20
-3.5791567
11
6.0323806
21
-4.7542
0
LINE
8
DEFAULT_255_1_234
10
6.0323806
20
-4.7542
11
5.8829902
21
-4.7542
0
LINE
8
DEFAULT_255_1_234
10
5.8829902
20
-4.7542
11
5.8829902
21
-3.7638867
0
LINE
8
DEFAULT_255_1_234
10
5.8829902
20
-3.7638867
11
5.5834064
21
-3.8739215
0
LINE
8
DEFAULT_255_1_234
10
5.5834064
20
-3.8739215
11
5.5834064
21
-3.7389883
0
LINE
8
DEFAULT_255_1_234
10
5.5834064
20
-3.7389883
11
6.0090885
21
-3.5791567
0
LINE
8
DEFAULT_255_1_234
10
6.0090885
20
-3.5791567
11
6.0323806
21
-3.5791567
0
LINE
8
DEFAULT_255_1_234
10
4.2568522
20
1.7085211
11
4.5893662
21
0.7439093
0
LINE
8
DEFAULT_255_1_234
10
4.5893662
20
0.7439093
11
4.9234865
21
1.7085211
0
LINE
8
DEFAULT_255_1_234
10
4.9234865
20
1.7085211
11
5.092153
21
1.7085211
0
LINE
8
DEFAULT_255_1_234
10
5.092153
20
1.7085211
11
4.6584391
21
0.5391
0
LINE
8
DEFAULT_255_1_234
10
4.6584391
20
0.5391
11
4.5218996
21
0.5391
0
LINE
8
DEFAULT_255_1_234
10
4.5218996
20
0.5391
11
4.0889889
21
1.7085211
0
LINE
8
DEFAULT_255_1_234
10
4.0889889
20
1.7085211
11
4.2568522
21
1.7085211
0
LINE
8
DEFAULT_255_1_234
10
5.6985492
20
1.7141433
11
5.6985492
21
0.5391
0
LINE
8
DEFAULT_255_1_234
10
5.6985492
20
0.5391
11
5.5491589
21
0.5391
0
LINE
8
DEFAULT_255_1_234
10
5.5491589
20
0.5391
11
5.5491589
21
1.5294133
0
LINE
8
DEFAULT_255_1_234
10
5.5491589
20
1.5294133
11
5.249575
21
1.4193785
0
LINE
8
DEFAULT_255_1_234
10
5.249575
20
1.4193785
11
5.249575
21
1.5543117
0
LINE
8
DEFAULT_255_1_234
10
5.249575
20
1.5543117
11
5.6752572
21
1.7141433
0
LINE
8
DEFAULT_255_1_234
10
5.6752572
20
1.7141433
11
5.6985492
21
1.7141433
0
LINE
8
DEFAULT_255_1_234
10
15.215377
20
6.9999211
11
15.3703896
21
6.9999211
0
LINE
8
DEFAULT_255_1_234
10
15.3703896
20
6.9999211
11
15.3703896
21
6.204779
0
LINE
8
DEFAULT_255_1_234
10
14.9864725
20
5.8160429
11
14.9455106
21
5.8144365
0
LINE
8
DEFAULT_255_1_234
10
14.5238443
20
6.2031727
11
14.5238443
21
6.9999211
0
LINE
8
DEFAULT_255_1_234
10
14.5238443
20
6.9999211
11
14.6764474
21
6.9999211
0
LINE
8
DEFAULT_255_1_234
10
14.6764474
20
6.9999211
11
14.6764474
21
6.2079917
0
LINE
8
DEFAULT_255_1_234
10
15.215377
20
6.2071885
11
15.215377
21
6.9999211
0
ARC
8
DEFAULT_255_1_234
10
14.9350794
20
6.2027928
40
0.4353147
50
343.0898354
51
0.2614217
0
ARC
8
DEFAULT_255_1_234
10
15.0179195
20
6.1796837
40
0.3493402
50
315.3345598
51
342.7641223
0
ARC
8
DEFAULT_255_1_234
10
14.9955644
20
6.2028682
40
0.3815385
50
284.6606969
51
315.2182466
0
ARC
8
DEFAULT_255_1_234
10
14.9500357
20
6.3574755
40
0.5426573
50
273.8500273
51
285.1797701
0
ARC
8
DEFAULT_255_1_234
10
14.9412408
20
6.3916475
40
0.5772268
50
257.6317484
51
270.4238298
0
ARC
8
DEFAULT_255_1_234
10
14.8987606
20
6.2095198
40
0.3902347
50
230.6087562
51
257.9964012
0
ARC
8
DEFAULT_255_1_234
10
14.8855608
20
6.1888802
40
0.3659186
50
227.7440991
51
230.1551448
0
ARC
8
DEFAULT_255_1_234
10
14.8721439
20
6.1727471
40
0.3449568
50
189.2524587
51
227.5916061
0
ARC
8
DEFAULT_255_1_234
10
15.0243126
20
6.2055013
40
0.5004737
50
180.2665968
51
190.1525252
0
ARC
8
DEFAULT_255_1_234
10
15.0465146
20
6.2051918
40
0.3700778
50
179.5665184
51
191.9952995
0
ARC
8
DEFAULT_255_1_234
10
14.9237252
20
6.1778043
40
0.2442808
50
191.6974072
51
215.1404042
0
ARC
8
DEFAULT_255_1_234
10
14.8999167
20
6.1636108
40
0.2166522
50
215.6950207
51
224.8513522
0
ARC
8
DEFAULT_255_1_234
10
14.905491
20
6.1715697
40
0.2262237
50
225.2846858
51
255.0111758
0
ARC
8
DEFAULT_255_1_234
10
14.937887
20
6.2829455
40
0.3421979
50
254.5944985
51
267.9129803
0
ARC
8
DEFAULT_255_1_234
10
14.9453351
20
6.3913903
40
0.4508556
50
267.4689655
51
270.0223026
0
ARC
8
DEFAULT_255_1_234
10
14.9483496
20
6.3324849
40
0.3919604
50
269.5849941
51
281.1843768
0
ARC
8
DEFAULT_255_1_234
10
14.9762261
20
6.1972059
40
0.2538457
50
280.9344262
51
300.9743589
0
ARC
8
DEFAULT_255_1_234
10
14.9974866
20
6.1580688
40
0.2093566
50
301.4980046
51
315.1466847
0
ARC
8
DEFAULT_255_1_234
10
14.9830405
20
6.1699236
40
0.2279656
50
315.5952539
51
345.6678731
0
ARC
8
DEFAULT_255_1_234
10
14.8710921
20
6.2011009
40
0.3441564
50
345.2524969
51
358.6304371
0
ARC
8
DEFAULT_255_1_234
10
14.7693275
20
6.2070916
40
0.4460494
50
358.1735671
51
0.0124524
0
LINE
8
DEFAULT_255_1_234
10
16.3414267
20
5.9517792
11
16.3414267
21
5.8305
0
LINE
8
DEFAULT_255_1_234
10
16.3414267
20
5.8305
11
15.5751989
21
5.8305
0
LINE
8
DEFAULT_255_1_234
10
15.5751989
20
5.8305
11
15.5751989
21
5.9373221
0
LINE
8
DEFAULT_255_1_234
10
15.5751989
20
5.9373221
11
15.9799985
21
6.3870995
0
LINE
8
DEFAULT_255_1_234
10
15.7012972
20
6.6553595
11
15.55271
21
6.6553595
0
LINE
8
DEFAULT_255_1_234
10
16.0675444
20
6.2915218
11
15.7543066
21
5.9517792
0
LINE
8
DEFAULT_255_1_234
10
15.7543066
20
5.9517792
11
16.3414267
21
5.9517792
0
ARC
8
DEFAULT_255_1_234
10
14.6309818
20
7.5800527
40
1.8008286
50
318.5132453
51
320.7828378
0
ARC
8
DEFAULT_255_1_234
10
15.1596793
20
7.1497426
40
1.1191493
50
320.7372736
51
323.9737074
0
ARC
8
DEFAULT_255_1_234
10
15.5516649
20
6.8657361
40
0.6350923
50
323.8961724
51
328.6421089
0
ARC
8
DEFAULT_255_1_234
10
15.7563244
20
6.7395031
40
0.3946393
50
328.8299013
51
331.789948
0
ARC
8
DEFAULT_255_1_234
10
15.8560423
20
6.6880509
40
0.2824501
50
331.4255242
51
352.9364833
0
ARC
8
DEFAULT_255_1_234
10
15.8696924
20
6.6849976
40
0.2685315
50
353.2248685
51
0.0169286
0
ARC
8
DEFAULT_255_1_234
10
15.89068
20
6.687295
40
0.2475536
50
359.4866256
51
15.9339782
0
ARC
8
DEFAULT_255_1_234
10
15.9413786
20
6.7009286
40
0.1950618
50
16.1714718
51
43.5284424
0
ARC
8
DEFAULT_255_1_234
10
15.9491094
20
6.7086573
40
0.184134
50
43.4415429
51
83.1661404
0
ARC
8
DEFAULT_255_1_234
10
15.9357012
20
6.6349771
40
0.258926
50
82.160215
51
90.1505798
0
ARC
8
DEFAULT_255_1_234
10
15.932544
20
6.5812865
40
0.3126255
50
89.5460705
51
102.5418777
0
ARC
8
DEFAULT_255_1_234
10
15.9082526
20
6.6843665
40
0.2067346
50
102.1739365
51
129.2061916
0
ARC
8
DEFAULT_255_1_234
10
15.9003598
20
6.6968094
40
0.1921118
50
129.7279328
51
135.7542026
0
ARC
8
DEFAULT_255_1_234
10
15.9125125
20
6.6871045
40
0.2075944
50
136.175737
51
166.3674722
0
ARC
8
DEFAULT_255_1_234
10
16.0132045
20
6.6601182
40
0.3118201
50
165.9092917
51
178.8683903
0
ARC
8
DEFAULT_255_1_234
10
16.0996906
20
6.6554179
40
0.3983935
50
178.438168
51
180.0083905
0
ARC
8
DEFAULT_255_1_234
10
15.9595508
20
6.6593231
40
0.4068601
50
163.2878735
51
180.5581814
0
ARC
8
DEFAULT_255_1_234
10
15.8793769
20
6.681384
40
0.3237344
50
133.454115
51
162.9470031
0
ARC
8
DEFAULT_255_1_234
10
15.8972311
20
6.6624
40
0.349795
50
100.7869394
51
133.4384016
0
ARC
8
DEFAULT_255_1_234
10
15.9320082
20
6.5075319
40
0.5084616
50
89.6605301
51
101.3704185
0
ARC
8
DEFAULT_255_1_234
10
15.9386421
20
6.5136496
40
0.502348
50
78.2171172
51
90.4130393
0
ARC
8
DEFAULT_255_1_234
10
15.9741499
20
6.6760637
40
0.3361092
50
55.9268222
51
78.4888551
0
ARC
8
DEFAULT_255_1_234
10
15.9937939
20
6.7099324
40
0.2970617
50
47.9292255
51
55.4054003
0
ARC
8
DEFAULT_255_1_234
10
16.00395
20
6.7202502
40
0.2825983
50
4.3347696
51
48.0560701
0
ARC
8
DEFAULT_255_1_234
10
15.8943894
20
6.7032601
40
0.393225
50
359.925209
51
5.5967654
0
ARC
8
DEFAULT_255_1_234
10
15.9372785
20
6.7088816
40
0.3503892
50
337.8914096
51
358.9967724
0
ARC
8
DEFAULT_255_1_234
10
15.6659198
20
6.8135706
40
0.6412172
50
326.9135351
51
338.3505194
0
ARC
8
DEFAULT_255_1_234
10
15.2673501
20
7.0690284
40
1.1146189
50
319.6472867
51
327.095818
0
ARC
8
DEFAULT_255_1_234
10
14.8840504
20
7.3852
40
1.6114559
50
317.2586784
51
319.9046139
0
LINE
8
DEFAULT_255_1_234
10
14.197203
20
-3.5847789
11
14.381933
21
-4.3855432
0
LINE
8
DEFAULT_255_1_234
10
14.381933
20
-4.3855432
11
14.4044218
21
-4.5397526
0
LINE
8
DEFAULT_255_1_234
10
14.4044218
20
-4.5397526
11
14.437352
21
-4.4008035
0
LINE
8
DEFAULT_255_1_234
10
14.437352
20
-4.4008035
11
14.668666
21
-3.5847789
0
LINE
8
DEFAULT_255_1_234
10
14.668666
20
-3.5847789
11
14.7987802
21
-3.5847789
0
LINE
8
DEFAULT_255_1_234
10
14.7987802
20
-3.5847789
11
15.024472
21
-4.4008035
0
LINE
8
DEFAULT_255_1_234
10
15.024472
20
-4.4008035
11
15.056599
21
-4.5421621
0
LINE
8
DEFAULT_255_1_234
10
15.056599
20
-4.5421621
11
15.0814974
21
-4.38474
0
LINE
8
DEFAULT_255_1_234
10
15.0814974
20
-4.38474
11
15.2630146
21
-3.5847789
0
LINE
8
DEFAULT_255_1_234
10
15.2630146
20
-3.5847789
11
15.4180272
21
-3.5847789
0
LINE
8
DEFAULT_255_1_234
10
15.4180272
20
-3.5847789
11
15.1345068
21
-4.7542
0
LINE
8
DEFAULT_255_1_234
10
15.1345068
20
-4.7542
11
14.9939514
21
-4.7542
0
LINE
8
DEFAULT_255_1_234
10
14.9939514
20
-4.7542
11
14.7529993
21
-3.9020326
0
LINE
8
DEFAULT_255_1_234
10
14.7529993
20
-3.9020326
11
14.7345263
21
-3.8128803
0
LINE
8
DEFAULT_255_1_234
10
14.7345263
20
-3.8128803
11
14.7160533
21
-3.9020326
0
LINE
8
DEFAULT_255_1_234
10
14.7160533
20
-3.9020326
11
14.4662662
21
-4.7542
0
LINE
8
DEFAULT_255_1_234
10
14.4662662
20
-4.7542
11
14.3257108
21
-4.7542
0
LINE
8
DEFAULT_255_1_234
10
14.3257108
20
-4.7542
11
14.0429936
21
-3.5847789
0
LINE
8
DEFAULT_255_1_234
10
14.0429936
20
-3.5847789
11
14.197203
21
-3.5847789
0
LINE
8
DEFAULT_255_1_234
10
16.3167787
20
-4.6329208
11
16.3167787
21
-4.7542
0
LINE
8
DEFAULT_255_1_234
10
16.3167787
20
-4.7542
11
15.5505509
21
-4.7542
0
LINE
8
DEFAULT_255_1_234
10
15.5505509
20
-4.7542
11
15.5505509
21
-4.6473779
0
LINE
8
DEFAULT_255_1_234
10
15.5505509
20
-4.6473779
11
15.9553505
21
-4.1976005
0
LINE
8
DEFAULT_255_1_234
10
15.6766492
20
-3.9293405
11
15.528062
21
-3.9293405
0
LINE
8
DEFAULT_255_1_234
10
16.0428964
20
-4.2931782
11
15.7296586
21
-4.6329208
0
LINE
8
DEFAULT_255_1_234
10
15.7296586
20
-4.6329208
11
16.3167787
21
-4.6329208
0
ARC
8
DEFAULT_255_1_234
10
14.6063338
20
-3.0046473
40
1.8008286
50
318.5132453
51
320.7828378
0
ARC
8
DEFAULT_255_1_234
10
15.1350313
20
-3.4349574
40
1.1191493
50
320.7372736
51
323.9737074
0
ARC
8
DEFAULT_255_1_234
10
15.5270169
20
-3.7189639
40
0.6350923
50
323.8961724
51
328.6421089
0
ARC
8
DEFAULT_255_1_234
10
15.7316764
20
-3.8451969
40
0.3946393
50
328.8299013
51
331.789948
0
ARC
8
DEFAULT_255_1_234
10
15.8313943
20
-3.8966491
40
0.2824501
50
331.4255242
51
352.9364833
0
ARC
8
DEFAULT_255_1_234
10
15.8450444
20
-3.8997024
40
0.2685315
50
353.2248685
51
0.0169286
0
ARC
8
DEFAULT_255_1_234
10
15.866032
20
-3.897405
40
0.2475536
50
359.4866256
51
15.9339782
0
ARC
8
DEFAULT_255_1_234
10
15.9167306
20
-3.8837714
40
0.1950618
50
16.1714718
51
43.5284424
0
ARC
8
DEFAULT_255_1_234
10
15.9244614
20
-3.8760427
40
0.184134
50
43.4415429
51
83.1661404
0
ARC
8
DEFAULT_255_1_234
10
15.9110532
20
-3.9497229
40
0.258926
50
82.160215
51
90.1505798
0
ARC
8
DEFAULT_255_1_234
10
15.907896
20
-4.0034135
40
0.3126255
50
89.5460705
51
102.5418777
0
ARC
8
DEFAULT_255_1_234
10
15.8836046
20
-3.9003335
40
0.2067346
50
102.1739365
51
129.2061916
0
ARC
8
DEFAULT_255_1_234
10
15.8757118
20
-3.8878906
40
0.1921118
50
129.7279328
51
135.7542026
0
ARC
8
DEFAULT_255_1_234
10
15.8878645
20
-3.8975955
40
0.2075944
50
136.175737
51
166.3674722
0
ARC
8
DEFAULT_255_1_234
10
15.9885565
20
-3.9245818
40
0.3118201
50
165.9092917
51
178.8683903
0
ARC
8
DEFAULT_255_1_234
10
16.0750426
20
-3.9292821
40
0.3983935
50
178.438168
51
180.0083905
0
ARC
8
DEFAULT_255_1_234
10
15.9349028
20
-3.9253769
40
0.4068601
50
163.2878735
51
180.5581814
0
ARC
8
DEFAULT_255_1_234
10
15.8547289
20
-3.903316
40
0.3237344
50
133.454115
51
162.9470031
0
ARC
8
DEFAULT_255_1_234
10
15.8725831
20
-3.9223
40
0.349795
50
100.7869394
51
133.4384016
0
ARC
8
DEFAULT_255_1_234
10
15.9073602
20
-4.0771681
40
0.5084616
50
89.6605301
51
101.3704185
0
ARC
8
DEFAULT_255_1_234
10
15.9139941
20
-4.0710504
40
0.502348
50
78.2171172
51
90.4130393
0
ARC
8
DEFAULT_255_1_234
10
15.9495019
20
-3.9086363
40
0.3361092
50
55.9268222
51
78.4888551
0
ARC
8
DEFAULT_255_1_234
10
15.9691459
20
-3.8747676
40
0.2970617
50
47.9292255
51
55.4054003
0
ARC
8
DEFAULT_255_1_234
10
15.979302
20
-3.8644498
40
0.2825983
50
4.3347696
51
48.0560701
0
ARC
8
DEFAULT_255_1_234
10
15.8697414
20
-3.8814399
40
0.393225
50
359.925209
51
5.5967654
0
ARC
8
DEFAULT_255_1_234
10
15.9126305
20
-3.8758184
40
0.3503892
50
337.8914096
51
358.9967724
0
ARC
8
DEFAULT_255_1_234
10
15.6412718
20
-3.7711294
40
0.6412172
50
326.9135351
51
338.3505194
0
ARC
8
DEFAULT_255_1_234
10
15.2427021
20
-3.5156716
40
1.1146189
50
319.6472867
51
327.095818
0
ARC
8
DEFAULT_255_1_234
10
14.8594024
20
-3.1995
40
1.6114559
50
317.2586784
51
319.9046139
0
LINE
8
DEFAULT_255_1_234
10
14.5172522
20
1.7085211
11
14.8497662
21
0.7439093
0
LINE
8
DEFAULT_255_1_234
10
14.8497662
20
0.7439093
11
15.1838865
21
1.7085211
0
LINE
8
DEFAULT_255_1_234
10
15.1838865
20
1.7085211
11
15.352553
21
1.7085211
0
LINE
8
DEFAULT_255_1_234
10
15.352553
20
1.7085211
11
14.9188391
21
0.5391
0
LINE
8
DEFAULT_255_1_234
10
14.9188391
20
0.5391
11
14.7822996
21
0.5391
0
LINE
8
DEFAULT_255_1_234
10
14.7822996
20
0.5391
11
14.3493889
21
1.7085211
0
LINE
8
DEFAULT_255_1_234
10
14.3493889
20
1.7085211
11
14.5172522
21
1.7085211
0
LINE
8
DEFAULT_255_1_234
10
16.2368474
20
0.6603792
11
16.2368474
21
0.5391
0
LINE
8
DEFAULT_255_1_234
10
16.2368474
20
0.5391
11
15.4706195
21
0.5391
0
LINE
8
DEFAULT_255_1_234
10
15.4706195
20
0.5391
11
15.4706195
21
0.6459221
0
LINE
8
DEFAULT_255_1_234
10
15.4706195
20
0.6459221
11
15.8754191
21
1.0956995
0
LINE
8
DEFAULT_255_1_234
10
15.5967178
20
1.3639595
11
15.4481307
21
1.3639595
0
LINE
8
DEFAULT_255_1_234
10
15.9629651
20
1.0001218
11
15.6497273
21
0.6603792
0
LINE
8
DEFAULT_255_1_234
10
15.6497273
20
0.6603792
11
16.2368474
21
0.6603792
0
ARC
8
DEFAULT_255_1_234
10
14.5264025
20
2.2886527
40
1.8008286
50
318.5132453
51
320.7828378
0
ARC
8
DEFAULT_255_1_234
10
15.0550999
20
1.8583426
40
1.1191493
50
320.7372736
51
323.9737074
0
ARC
8
DEFAULT_255_1_234
10
15.4470855
20
1.5743361
40
0.6350923
50
323.8961724
51
328.6421089
0
ARC
8
DEFAULT_255_1_234
10
15.6517451
20
1.4481031
40
0.3946393
50
328.8299013
51
331.789948
0
ARC
8
DEFAULT_255_1_234
10
15.7514629
20
1.3966509
40
0.2824501
50
331.4255242
51
352.9364833
0
ARC
8
DEFAULT_255_1_234
10
15.765113
20
1.3935976
40
0.2685315
50
353.2248685
51
0.0169286
0
ARC
8
DEFAULT_255_1_234
10
15.7861007
20
1.395895
40
0.2475536
50
359.4866256
51
15.9339782
0
ARC
8
DEFAULT_255_1_234
10
15.8367992
20
1.4095286
40
0.1950618
50
16.1714718
51
43.5284424
0
ARC
8
DEFAULT_255_1_234
10
15.8445301
20
1.4172573
40
0.184134
50
43.4415429
51
83.1661404
0
ARC
8
DEFAULT_255_1_234
10
15.8311219
20
1.3435771
40
0.258926
50
82.160215
51
90.1505798
0
ARC
8
DEFAULT_255_1_234
10
15.8279646
20
1.2898865
40
0.3126255
50
89.5460705
51
102.5418777
0
ARC
8
DEFAULT_255_1_234
10
15.8036732
20
1.3929665
40
0.2067346
50
102.1739365
51
129.2061916
0
ARC
8
DEFAULT_255_1_234
10
15.7957804
20
1.4054094
40
0.1921118
50
129.7279328
51
135.7542026
0
ARC
8
DEFAULT_255_1_234
10
15.8079332
20
1.3957045
40
0.2075944
50
136.175737
51
166.3674722
0
ARC
8
DEFAULT_255_1_234
10
15.9086251
20
1.3687182
40
0.3118201
50
165.9092917
51
178.8683903
0
ARC
8
DEFAULT_255_1_234
10
15.9951112
20
1.3640179
40
0.3983935
50
178.438168
51
180.0083905
0
ARC
8
DEFAULT_255_1_234
10
15.8549714
20
1.3679231
40
0.4068601
50
163.2878735
51
180.5581814
0
ARC
8
DEFAULT_255_1_234
10
15.7747976
20
1.389984
40
0.3237344
50
133.454115
51
162.9470031
0
ARC
8
DEFAULT_255_1_234
10
15.7926517
20
1.371
40
0.349795
50
100.7869394
51
133.4384016
0
ARC
8
DEFAULT_255_1_234
10
15.8274289
20
1.2161319
40
0.5084616
50
89.6605301
51
101.3704185
0
ARC
8
DEFAULT_255_1_234
10
15.8340627
20
1.2222496
40
0.502348
50
78.2171172
51
90.4130393
0
ARC
8
DEFAULT_255_1_234
10
15.8695706
20
1.3846637
40
0.3361092
50
55.9268222
51
78.4888551
0
ARC
8
DEFAULT_255_1_234
10
15.8892146
20
1.4185324
40
0.2970617
50
47.9292255
51
55.4054003
0
ARC
8
DEFAULT_255_1_234
10
15.8993707
20
1.4288502
40
0.2825983
50
4.3347696
51
48.0560701
0
ARC
8
DEFAULT_255_1_234
10
15.78981
20
1.4118601
40
0.393225
50
359.925209
51
5.5967654
0
ARC
8
DEFAULT_255_1_234
10
15.8326992
20
1.4174816
40
0.3503892
50
337.8914096
51
358.9967724
0
ARC
8
DEFAULT_255_1_234
10
15.5613404
20
1.5221706
40
0.6412172
50
326.9135351
51
338.3505194
0
ARC
8
DEFAULT_255_1_234
10
15.1627708
20
1.7776284
40
1.1146189
50
319.6472867
51
327.095818
0
ARC
8
DEFAULT_255_1_234
10
14.7794711
20
2.0938
40
1.6114559
50
317.2586784
51
319.9046139
0
ENDSEC
0
EOF