0
SECTION
2
HEADER
9
$MEASUREMENT
70
1
0
ENDSEC
0
SECTION
2
TABLES
0
TABLE
2
LTYPE
0
LTYPE
72
65
70
64
2
CONTINUOUS
3
______
73
0
40
0
0
ENDTAB
0
TABLE
2
LAYER
0
LAYER
2
DEFAULT_255_2_778
70
0
62
255
6
CONTINUOUS
0
LAYER
2
DEFAULT_255_1_234
70
0
62
255
6
CONTINUOUS
0
ENDTAB
0
ENDSEC
0
SECTION
2
ENTITIES
0
LINE
8
DEFAULT_255_2_778
10
9.1268
20
-2.7781709
11
9.1268
21
4.2333291
0
ARC
8
DEFAULT_255_2_778
10
11.1126527
20
4.2318973
40
0.6600157
50
269.871006
51
0.1289958
0
ARC
8
DEFAULT_255_2_778
10
11.1097446
20
4.2319611
40
0.6600794
50
179.8765543
51
270.1234396
0
ARC
8
DEFAULT_255_2_778
10
9.7896743
20
4.2318759
40
0.6599942
50
269.8778051
51
0.1308527
0
ARC
8
DEFAULT_255_2_778
10
9.786781
20
4.2318975
40
0.660016
50
179.8710252
51
270.1289791
0
ARC
8
DEFAULT_255_2_778
10
8.4667743
20
4.2318759
40
0.6599942
50
269.8778051
51
0.1308527
0
ARC
8
DEFAULT_255_2_778
10
8.4638809
20
4.2318974
40
0.6600159
50
179.8710178
51
270.1289822
0
ARC
8
DEFAULT_255_2_778
10
7.1438743
20
4.2318759
40
0.6599942
50
269.8778051
51
0.1308527
0
ARC
8
DEFAULT_255_2_778
10
7.1409809
20
4.2318972
40
0.6600157
50
179.871
51
270.1289896
0
LINE
8
DEFAULT_255_2_778
10
11.7726667
20
10.4510832
11
11.7726667
21
4.2333832
0
LINE
8
DEFAULT_255_2_778
10
6.4809667
20
4.2333832
11
6.4809667
21
10.4510832
0
LINE
8
DEFAULT_255_2_778
10
6.481
20
-2.7781709
11
6.481
21
4.2333291
0
LINE
8
DEFAULT_255_1_234
10
4.3696567
20
6.6912137
11
5.5447
21
6.6912137
0
LINE
8
DEFAULT_255_1_234
10
5.5447
20
6.6912137
11
5.5447
21
6.5418234
0
LINE
8
DEFAULT_255_1_234
10
5.5447
20
6.5418234
11
4.5543867
21
6.5418234
0
LINE
8
DEFAULT_255_1_234
10
4.5543867
20
6.5418234
11
4.6644215
21
6.2422396
0
LINE
8
DEFAULT_255_1_234
10
4.6644215
20
6.2422396
11
4.5294883
21
6.2422396
0
LINE
8
DEFAULT_255_1_234
10
4.5294883
20
6.2422396
11
4.3696567
21
6.6679217
0
LINE
8
DEFAULT_255_1_234
10
4.3696567
20
6.6679217
11
4.3696567
21
6.6912137
0
LINE
8
DEFAULT_255_1_234
10
4.3752789
20
8.0638378
11
5.5447
21
8.0638378
0
LINE
8
DEFAULT_255_1_234
10
5.5447
20
8.0638378
11
5.5447
21
7.9088252
0
LINE
8
DEFAULT_255_1_234
10
5.5447
20
7.9088252
11
4.643539
21
7.3200988
0
LINE
8
DEFAULT_255_1_234
10
4.643539
20
7.3200988
11
5.5447
21
7.3200988
0
LINE
8
DEFAULT_255_1_234
10
5.5447
20
7.3200988
11
5.5447
21
7.1650863
0
LINE
8
DEFAULT_255_1_234
10
5.5447
20
7.1650863
11
4.3752789
21
7.1650863
0
LINE
8
DEFAULT_255_1_234
10
4.3752789
20
7.1650863
11
4.3752789
21
7.3200988
0
LINE
8
DEFAULT_255_1_234
10
4.3752789
20
7.3200988
11
5.2804558
21
7.9104316
0
LINE
8
DEFAULT_255_1_234
10
5.2804558
20
7.9104316
11
4.3752789
21
7.9104316
0
LINE
8
DEFAULT_255_1_234
10
4.3752789
20
7.9104316
11
4.3752789
21
8.0638378
0
LINE
8
DEFAULT_255_1_234
10
9.6613567
20
6.9662137
11
10.8364
21
6.9662137
0
LINE
8
DEFAULT_255_1_234
10
10.8364
20
6.9662137
11
10.8364
21
6.8168234
0
LINE
8
DEFAULT_255_1_234
10
10.8364
20
6.8168234
11
9.8460867
21
6.8168234
0
LINE
8
DEFAULT_255_1_234
10
9.8460867
20
6.8168234
11
9.9561215
21
6.5172396
0
LINE
8
DEFAULT_255_1_234
10
9.9561215
20
6.5172396
11
9.8211883
21
6.5172396
0
LINE
8
DEFAULT_255_1_234
10
9.8211883
20
6.5172396
11
9.6613567
21
6.9429217
0
LINE
8
DEFAULT_255_1_234
10
9.6613567
20
6.9429217
11
9.6613567
21
6.9662137
0
LINE
8
DEFAULT_255_1_234
10
9.6669789
20
7.5950988
11
10.7103017
21
7.5950988
0
LINE
8
DEFAULT_255_1_234
10
10.7103017
20
7.5950988
11
10.7103017
21
8.1492888
0
LINE
8
DEFAULT_255_1_234
10
10.7103017
20
8.1492888
11
10.8364
21
8.1492888
0
LINE
8
DEFAULT_255_1_234
10
10.8364
20
8.1492888
11
10.8364
21
7.4400863
0
LINE
8
DEFAULT_255_1_234
10
10.8364
20
7.4400863
11
9.6669789
21
7.4400863
0
LINE
8
DEFAULT_255_1_234
10
9.6669789
20
7.4400863
11
9.6669789
21
7.5950988
0
LINE
8
DEFAULT_255_1_234
10
5.4234208
20
-0.7236881
11
5.5447
21
-0.7236881
0
LINE
8
DEFAULT_255_1_234
10
5.5447
20
-0.7236881
11
5.5447
21
-1.489916
0
LINE
8
DEFAULT_255_1_234
10
5.5447
20
-1.489916
11
5.4378779
21
-1.489916
0
LINE
8
DEFAULT_255_1_234
10
5.4378779
20
-1.489916
11
4.9881005
21
-1.0851164
0
LINE
8
DEFAULT_255_1_234
10
4.7198405
20
-1.3638177
11
4.7198405
21
-1.5124048
0
LINE
8
DEFAULT_255_1_234
10
5.0836782
20
-0.9975704
11
5.4234208
21
-1.3108082
0
LINE
8
DEFAULT_255_1_234
10
5.4234208
20
-1.3108082
11
5.4234208
21
-0.7236881
0
ARC
8
DEFAULT_255_1_234
10
3.7951473
20
-2.434133
40
1.8008286
50
48.5132453
51
50.7828378
0
ARC
8
DEFAULT_255_1_234
10
4.2254574
20
-1.9054356
40
1.1191493
50
50.7372736
51
53.9737074
0
ARC
8
DEFAULT_255_1_234
10
4.5094639
20
-1.5134499
40
0.6350923
50
53.8961724
51
58.6421089
0
ARC
8
DEFAULT_255_1_234
10
4.6356969
20
-1.3087904
40
0.3946393
50
58.8299013
51
61.789948
0
ARC
8
DEFAULT_255_1_234
10
4.6871491
20
-1.2090726
40
0.2824501
50
61.4255242
51
82.9364833
0
ARC
8
DEFAULT_255_1_234
10
4.6902024
20
-1.1954225
40
0.2685315
50
83.2248685
51
90.0169286
0
ARC
8
DEFAULT_255_1_234
10
4.687905
20
-1.1744348
40
0.2475536
50
89.4866256
51
105.9339782
0
ARC
8
DEFAULT_255_1_234
10
4.6742714
20
-1.1237363
40
0.1950618
50
106.1714718
51
133.5284424
0
ARC
8
DEFAULT_255_1_234
10
4.6665427
20
-1.1160054
40
0.184134
50
133.4415429
51
173.1661404
0
ARC
8
DEFAULT_255_1_234
10
4.7402229
20
-1.1294136
40
0.258926
50
172.160215
51
180.1505798
0
ARC
8
DEFAULT_255_1_234
10
4.7939135
20
-1.1325709
40
0.3126255
50
179.5460705
51
192.5418777
0
ARC
8
DEFAULT_255_1_234
10
4.6908335
20
-1.1568623
40
0.2067346
50
192.1739365
51
219.2061916
0
ARC
8
DEFAULT_255_1_234
10
4.6783906
20
-1.1647551
40
0.1921118
50
219.7279328
51
225.7542026
0
ARC
8
DEFAULT_255_1_234
10
4.6880955
20
-1.1526023
40
0.2075944
50
226.175737
51
256.3674722
0
ARC
8
DEFAULT_255_1_234
10
4.7150818
20
-1.0519104
40
0.3118201
50
255.9092917
51
268.8683903
0
ARC
8
DEFAULT_255_1_234
10
4.7197821
20
-0.9654243
40
0.3983935
50
268.438168
51
270.0083905
0
ARC
8
DEFAULT_255_1_234
10
4.7158769
20
-1.1055641
40
0.4068601
50
253.2878735
51
270.5581814
0
ARC
8
DEFAULT_255_1_234
10
4.693816
20
-1.1857379
40
0.3237344
50
223.454115
51
252.9470031
0
ARC
8
DEFAULT_255_1_234
10
4.7128
20
-1.1678838
40
0.349795
50
190.7869394
51
223.4384016
0
ARC
8
DEFAULT_255_1_234
10
4.8676681
20
-1.1331066
40
0.5084616
50
179.6605301
51
191.3704185
0
ARC
8
DEFAULT_255_1_234
10
4.8615504
20
-1.1264727
40
0.502348
50
168.2171172
51
180.4130393
0
ARC
8
DEFAULT_255_1_234
10
4.6991363
20
-1.0909649
40
0.3361092
50
145.9268222
51
168.4888551
0
ARC
8
DEFAULT_255_1_234
10
4.6652676
20
-1.0713209
40
0.2970617
50
137.9292255
51
145.4054003
0
ARC
8
DEFAULT_255_1_234
10
4.6549498
20
-1.0611648
40
0.2825983
50
94.3347696
51
138.0560701
0
ARC
8
DEFAULT_255_1_234
10
4.6719399
20
-1.1707255
40
0.393225
50
89.925209
51
95.5967654
0
ARC
8
DEFAULT_255_1_234
10
4.6663184
20
-1.1278363
40
0.3503892
50
67.8914096
51
88.9967724
0
ARC
8
DEFAULT_255_1_234
10
4.5616294
20
-1.3991951
40
0.6412172
50
56.9135351
51
68.3505194
0
ARC
8
DEFAULT_255_1_234
10
4.3061716
20
-1.7977647
40
1.1146189
50
49.6472867
51
57.095818
0
ARC
8
DEFAULT_255_1_234
10
3.99
20
-2.1810644
40
1.6114559
50
47.2586784
51
49.9046139
0
LINE
8
DEFAULT_255_1_234
10
4.3752789
20
0.3710378
11
5.5447
21
0.3710378
0
LINE
8
DEFAULT_255_1_234
10
5.5447
20
0.3710378
11
5.5447
21
0.2160252
0
LINE
8
DEFAULT_255_1_234
10
5.5447
20
0.2160252
11
4.643539
21
-0.3727012
0
LINE
8
DEFAULT_255_1_234
10
4.643539
20
-0.3727012
11
5.5447
21
-0.3727012
0
LINE
8
DEFAULT_255_1_234
10
5.5447
20
-0.3727012
11
5.5447
21
-0.5277137
0
LINE
8
DEFAULT_255_1_234
10
5.5447
20
-0.5277137
11
4.3752789
21
-0.5277137
0
LINE
8
DEFAULT_255_1_234
10
4.3752789
20
-0.5277137
11
4.3752789
21
-0.3727012
0
LINE
8
DEFAULT_255_1_234
10
4.3752789
20
-0.3727012
11
5.2804558
21
0.2176316
0
LINE
8
DEFAULT_255_1_234
10
5.2804558
20
0.2176316
11
4.3752789
21
0.2176316
0
LINE
8
DEFAULT_255_1_234
10
4.3752789
20
0.2176316
11
4.3752789
21
0.3710378
0
LINE
8
DEFAULT_255_1_234
10
8.0692208
20
-0.7116881
11
8.1905
21
-0.7116881
0
LINE
8
DEFAULT_255_1_234
10
8.1905
20
-0.7116881
11
8.1905
21
-1.477916
0
LINE
8
DEFAULT_255_1_234
10
8.1905
20
-1.477916
11
8.0836779
21
-1.477916
0
LINE
8
DEFAULT_255_1_234
10
8.0836779
20
-1.477916
11
7.6339005
21
-1.0731164
0
LINE
8
DEFAULT_255_1_234
10
7.3656405
20
-1.3518177
11
7.3656405
21
-1.5004048
0
LINE
8
DEFAULT_255_1_234
10
7.7294782
20
-0.9855704
11
8.0692208
21
-1.2988082
0
LINE
8
DEFAULT_255_1_234
10
8.0692208
20
-1.2988082
11
8.0692208
21
-0.7116881
0
ARC
8
DEFAULT_255_1_234
10
6.4409473
20
-2.422133
40
1.8008286
50
48.5132453
51
50.7828378
0
ARC
8
DEFAULT_255_1_234
10
6.8712574
20
-1.8934356
40
1.1191493
50
50.7372736
51
53.9737074
0
ARC
8
DEFAULT_255_1_234
10
7.1552639
20
-1.5014499
40
0.6350923
50
53.8961724
51
58.6421089
0
ARC
8
DEFAULT_255_1_234
10
7.2814969
20
-1.2967904
40
0.3946393
50
58.8299013
51
61.789948
0
ARC
8
DEFAULT_255_1_234
10
7.3329491
20
-1.1970726
40
0.2824501
50
61.4255242
51
82.9364833
0
ARC
8
DEFAULT_255_1_234
10
7.3360024
20
-1.1834225
40
0.2685315
50
83.2248685
51
90.0169286
0
ARC
8
DEFAULT_255_1_234
10
7.333705
20
-1.1624348
40
0.2475536
50
89.4866256
51
105.9339782
0
ARC
8
DEFAULT_255_1_234
10
7.3200714
20
-1.1117363
40
0.1950618
50
106.1714718
51
133.5284424
0
ARC
8
DEFAULT_255_1_234
10
7.3123427
20
-1.1040054
40
0.184134
50
133.4415429
51
173.1661404
0
ARC
8
DEFAULT_255_1_234
10
7.3860229
20
-1.1174136
40
0.258926
50
172.160215
51
180.1505798
0
ARC
8
DEFAULT_255_1_234
10
7.4397135
20
-1.1205709
40
0.3126255
50
179.5460705
51
192.5418777
0
ARC
8
DEFAULT_255_1_234
10
7.3366335
20
-1.1448623
40
0.2067346
50
192.1739365
51
219.2061916
0
ARC
8
DEFAULT_255_1_234
10
7.3241906
20
-1.1527551
40
0.1921118
50
219.7279328
51
225.7542026
0
ARC
8
DEFAULT_255_1_234
10
7.3338955
20
-1.1406023
40
0.2075944
50
226.175737
51
256.3674722
0
ARC
8
DEFAULT_255_1_234
10
7.3608818
20
-1.0399104
40
0.3118201
50
255.9092917
51
268.8683903
0
ARC
8
DEFAULT_255_1_234
10
7.3655821
20
-0.9534243
40
0.3983935
50
268.438168
51
270.0083905
0
ARC
8
DEFAULT_255_1_234
10
7.3616769
20
-1.0935641
40
0.4068601
50
253.2878735
51
270.5581814
0
ARC
8
DEFAULT_255_1_234
10
7.339616
20
-1.1737379
40
0.3237344
50
223.454115
51
252.9470031
0
ARC
8
DEFAULT_255_1_234
10
7.3586
20
-1.1558838
40
0.349795
50
190.7869394
51
223.4384016
0
ARC
8
DEFAULT_255_1_234
10
7.5134681
20
-1.1211066
40
0.5084616
50
179.6605301
51
191.3704185
0
ARC
8
DEFAULT_255_1_234
10
7.5073504
20
-1.1144727
40
0.502348
50
168.2171172
51
180.4130393
0
ARC
8
DEFAULT_255_1_234
10
7.3449363
20
-1.0789649
40
0.3361092
50
145.9268222
51
168.4888551
0
ARC
8
DEFAULT_255_1_234
10
7.3110676
20
-1.0593209
40
0.2970617
50
137.9292255
51
145.4054003
0
ARC
8
DEFAULT_255_1_234
10
7.3007498
20
-1.0491648
40
0.2825983
50
94.3347696
51
138.0560701
0
ARC
8
DEFAULT_255_1_234
10
7.3177399
20
-1.1587255
40
0.393225
50
89.925209
51
95.5967654
0
ARC
8
DEFAULT_255_1_234
10
7.3121184
20
-1.1158363
40
0.3503892
50
67.8914096
51
88.9967724
0
ARC
8
DEFAULT_255_1_234
10
7.2074294
20
-1.3871951
40
0.6412172
50
56.9135351
51
68.3505194
0
ARC
8
DEFAULT_255_1_234
10
6.9519716
20
-1.7857647
40
1.1146189
50
49.6472867
51
57.095818
0
ARC
8
DEFAULT_255_1_234
10
6.6358
20
-2.1690644
40
1.6114559
50
47.2586784
51
49.9046139
0
LINE
8
DEFAULT_255_1_234
10
7.0210789
20
-0.3607012
11
8.0644017
21
-0.3607012
0
LINE
8
DEFAULT_255_1_234
10
8.0644017
20
-0.3607012
11
8.0644017
21
0.1934888
0
LINE
8
DEFAULT_255_1_234
10
8.0644017
20
0.1934888
11
8.1905
21
0.1934888
0
LINE
8
DEFAULT_255_1_234
10
8.1905
20
0.1934888
11
8.1905
21
-0.5157137
0
LINE
8
DEFAULT_255_1_234
10
8.1905
20
-0.5157137
11
7.0210789
21
-0.5157137
0
LINE
8
DEFAULT_255_1_234
10
7.0210789
20
-0.5157137
11
7.0210789
21
-0.3607012
0
ENDSEC
0
EOF