0
SECTION
2
HEADER
9
$MEASUREMENT
70
1
0
ENDSEC
0
SECTION
2
TABLES
0
TABLE
2
LTYPE
0
LTYPE
72
65
70
64
2
CONTINUOUS
3
______
73
0
40
0
0
ENDTAB
0
TABLE
2
LAYER
0
LAYER
2
DEFAULT_255_2_778
70
0
62
255
6
CONTINUOUS
0
LAYER
2
DEFAULT_255_1_234
70
0
62
255
6
CONTINUOUS
0
ENDTAB
0
ENDSEC
0
SECTION
2
ENTITIES
0
ARC
8
DEFAULT_255_2_778
10
4.7610304
20
1.5847091
40
0.6599942
50
179.8778094
51
270.1308423
0
ARC
8
DEFAULT_255_2_778
10
4.7610517
20
1.5876026
40
0.6600158
50
89.8710135
51
180.1289927
0
ARC
8
DEFAULT_255_2_778
10
4.7610304
20
2.9076092
40
0.6599943
50
179.8778168
51
270.1308393
0
ARC
8
DEFAULT_255_2_778
10
4.7610519
20
2.9105022
40
0.660016
50
89.8710313
51
180.1289644
0
LINE
8
DEFAULT_255_2_778
10
10.0541376
20
0.9247166
11
4.7625376
21
0.9247166
0
LINE
8
DEFAULT_255_2_778
10
4.7625376
20
3.5705166
11
10.0541376
21
3.5705166
0
ARC
8
DEFAULT_255_2_778
10
4.7610304
20
-3.7069909
40
0.6599942
50
179.8778094
51
270.1308423
0
ARC
8
DEFAULT_255_2_778
10
4.7610517
20
-3.7040974
40
0.6600158
50
89.8710135
51
180.1289927
0
ARC
8
DEFAULT_255_2_778
10
4.7610304
20
-2.3840908
40
0.6599943
50
179.8778168
51
270.1308393
0
ARC
8
DEFAULT_255_2_778
10
4.7610519
20
-2.3811978
40
0.660016
50
89.8710313
51
180.1289644
0
LINE
8
DEFAULT_255_2_778
10
10.0541376
20
-4.3669834
11
4.7625376
21
-4.3669834
0
LINE
8
DEFAULT_255_2_778
10
4.7625376
20
-1.7211834
11
10.0541376
21
-1.7211834
0
LINE
8
DEFAULT_255_2_778
10
3.4396
20
3.5705166
11
3.4396
21
0.9247166
0
LINE
8
DEFAULT_255_2_778
10
3.4396
20
-1.7211834
11
3.4396
21
-4.3669834
0
LINE
8
DEFAULT_255_1_234
10
6.5693137
20
5.6818433
11
6.5693137
21
4.5068
0
LINE
8
DEFAULT_255_1_234
10
6.5693137
20
4.5068
11
6.4199234
21
4.5068
0
LINE
8
DEFAULT_255_1_234
10
6.4199234
20
4.5068
11
6.4199234
21
5.4971133
0
LINE
8
DEFAULT_255_1_234
10
6.4199234
20
5.4971133
11
6.1203396
21
5.3870785
0
LINE
8
DEFAULT_255_1_234
10
6.1203396
20
5.3870785
11
6.1203396
21
5.5220117
0
LINE
8
DEFAULT_255_1_234
10
6.1203396
20
5.5220117
11
6.5460217
21
5.6818433
0
LINE
8
DEFAULT_255_1_234
10
6.5460217
20
5.6818433
11
6.5693137
21
5.6818433
0
LINE
8
DEFAULT_255_1_234
10
7.1981988
20
5.6762211
11
7.1981988
21
4.6328983
0
LINE
8
DEFAULT_255_1_234
10
7.1981988
20
4.6328983
11
7.7523888
21
4.6328983
0
LINE
8
DEFAULT_255_1_234
10
7.7523888
20
4.6328983
11
7.7523888
21
4.5068
0
LINE
8
DEFAULT_255_1_234
10
7.7523888
20
4.5068
11
7.0431863
21
4.5068
0
LINE
8
DEFAULT_255_1_234
10
7.0431863
20
4.5068
11
7.0431863
21
5.6762211
0
LINE
8
DEFAULT_255_1_234
10
7.0431863
20
5.6762211
11
7.1981988
21
5.6762211
0
LINE
8
DEFAULT_255_1_234
10
6.5722119
20
-3.3095208
11
6.5722119
21
-3.4308
0
LINE
8
DEFAULT_255_1_234
10
6.5722119
20
-3.4308
11
5.805984
21
-3.4308
0
LINE
8
DEFAULT_255_1_234
10
5.805984
20
-3.4308
11
5.805984
21
-3.3239779
0
LINE
8
DEFAULT_255_1_234
10
5.805984
20
-3.3239779
11
6.2107836
21
-2.8742005
0
LINE
8
DEFAULT_255_1_234
10
5.9320823
20
-2.6059405
11
5.7834952
21
-2.6059405
0
LINE
8
DEFAULT_255_1_234
10
6.2983296
20
-2.9697782
11
5.9850918
21
-3.3095208
0
LINE
8
DEFAULT_255_1_234
10
5.9850918
20
-3.3095208
11
6.5722119
21
-3.3095208
0
ARC
8
DEFAULT_255_1_234
10
4.861767
20
-1.6812473
40
1.8008286
50
318.5132453
51
320.7828378
0
ARC
8
DEFAULT_255_1_234
10
5.3904644
20
-2.1115574
40
1.1191493
50
320.7372736
51
323.9737074
0
ARC
8
DEFAULT_255_1_234
10
5.7824501
20
-2.3955639
40
0.6350923
50
323.8961724
51
328.6421089
0
ARC
8
DEFAULT_255_1_234
10
5.9871096
20
-2.5217969
40
0.3946393
50
328.8299013
51
331.789948
0
ARC
8
DEFAULT_255_1_234
10
6.0868274
20
-2.5732491
40
0.2824501
50
331.4255242
51
352.9364833
0
ARC
8
DEFAULT_255_1_234
10
6.1004775
20
-2.5763024
40
0.2685315
50
353.2248685
51
0.0169286
0
ARC
8
DEFAULT_255_1_234
10
6.1214652
20
-2.574005
40
0.2475536
50
359.4866256
51
15.9339782
0
ARC
8
DEFAULT_255_1_234
10
6.1721637
20
-2.5603714
40
0.1950618
50
16.1714718
51
43.5284424
0
ARC
8
DEFAULT_255_1_234
10
6.1798946
20
-2.5526427
40
0.184134
50
43.4415429
51
83.1661404
0
ARC
8
DEFAULT_255_1_234
10
6.1664864
20
-2.6263229
40
0.258926
50
82.160215
51
90.1505798
0
ARC
8
DEFAULT_255_1_234
10
6.1633291
20
-2.6800135
40
0.3126255
50
89.5460705
51
102.5418777
0
ARC
8
DEFAULT_255_1_234
10
6.1390377
20
-2.5769335
40
0.2067346
50
102.1739365
51
129.2061916
0
ARC
8
DEFAULT_255_1_234
10
6.1311449
20
-2.5644906
40
0.1921118
50
129.7279328
51
135.7542026
0
ARC
8
DEFAULT_255_1_234
10
6.1432977
20
-2.5741955
40
0.2075944
50
136.175737
51
166.3674722
0
ARC
8
DEFAULT_255_1_234
10
6.2439896
20
-2.6011818
40
0.3118201
50
165.9092917
51
178.8683903
0
ARC
8
DEFAULT_255_1_234
10
6.3304757
20
-2.6058821
40
0.3983935
50
178.438168
51
180.0083905
0
ARC
8
DEFAULT_255_1_234
10
6.1903359
20
-2.6019769
40
0.4068601
50
163.2878735
51
180.5581814
0
ARC
8
DEFAULT_255_1_234
10
6.1101621
20
-2.579916
40
0.3237344
50
133.454115
51
162.9470031
0
ARC
8
DEFAULT_255_1_234
10
6.1280162
20
-2.5989
40
0.349795
50
100.7869394
51
133.4384016
0
ARC
8
DEFAULT_255_1_234
10
6.1627934
20
-2.7537681
40
0.5084616
50
89.6605301
51
101.3704185
0
ARC
8
DEFAULT_255_1_234
10
6.1694273
20
-2.7476504
40
0.502348
50
78.2171172
51
90.4130393
0
ARC
8
DEFAULT_255_1_234
10
6.2049351
20
-2.5852363
40
0.3361092
50
55.9268222
51
78.4888551
0
ARC
8
DEFAULT_255_1_234
10
6.2245791
20
-2.5513676
40
0.2970617
50
47.9292255
51
55.4054003
0
ARC
8
DEFAULT_255_1_234
10
6.2347352
20
-2.5410498
40
0.2825983
50
4.3347696
51
48.0560701
0
ARC
8
DEFAULT_255_1_234
10
6.1251745
20
-2.5580399
40
0.393225
50
359.925209
51
5.5967654
0
ARC
8
DEFAULT_255_1_234
10
6.1680637
20
-2.5524184
40
0.3503892
50
337.8914096
51
358.9967724
0
ARC
8
DEFAULT_255_1_234
10
5.8967049
20
-2.4477294
40
0.6412172
50
326.9135351
51
338.3505194
0
ARC
8
DEFAULT_255_1_234
10
5.4981353
20
-2.1922716
40
1.1146189
50
319.6472867
51
327.095818
0
ARC
8
DEFAULT_255_1_234
10
5.1148356
20
-1.8761
40
1.6114559
50
317.2586784
51
319.9046139
0
LINE
8
DEFAULT_255_1_234
10
7.6669378
20
-2.2613789
11
7.6669378
21
-3.4308
0
LINE
8
DEFAULT_255_1_234
10
7.6669378
20
-3.4308
11
7.5119252
21
-3.4308
0
LINE
8
DEFAULT_255_1_234
10
7.5119252
20
-3.4308
11
6.9231988
21
-2.529639
0
LINE
8
DEFAULT_255_1_234
10
6.9231988
20
-2.529639
11
6.9231988
21
-3.4308
0
LINE
8
DEFAULT_255_1_234
10
6.9231988
20
-3.4308
11
6.7681863
21
-3.4308
0
LINE
8
DEFAULT_255_1_234
10
6.7681863
20
-3.4308
11
6.7681863
21
-2.2613789
0
LINE
8
DEFAULT_255_1_234
10
6.7681863
20
-2.2613789
11
6.9231988
21
-2.2613789
0
LINE
8
DEFAULT_255_1_234
10
6.9231988
20
-2.2613789
11
7.5135316
21
-3.1665558
0
LINE
8
DEFAULT_255_1_234
10
7.5135316
20
-3.1665558
11
7.5135316
21
-2.2613789
0
LINE
8
DEFAULT_255_1_234
10
7.5135316
20
-2.2613789
11
7.6669378
21
-2.2613789
0
LINE
8
DEFAULT_255_1_234
10
6.8472119
20
-0.6636208
11
6.8472119
21
-0.7849
0
LINE
8
DEFAULT_255_1_234
10
6.8472119
20
-0.7849
11
6.080984
21
-0.7849
0
LINE
8
DEFAULT_255_1_234
10
6.080984
20
-0.7849
11
6.080984
21
-0.6780779
0
LINE
8
DEFAULT_255_1_234
10
6.080984
20
-0.6780779
11
6.4857836
21
-0.2283005
0
LINE
8
DEFAULT_255_1_234
10
6.2070823
20
0.0399595
11
6.0584952
21
0.0399595
0
LINE
8
DEFAULT_255_1_234
10
6.5733296
20
-0.3238782
11
6.2600918
21
-0.6636208
0
LINE
8
DEFAULT_255_1_234
10
6.2600918
20
-0.6636208
11
6.8472119
21
-0.6636208
0
ARC
8
DEFAULT_255_1_234
10
5.136767
20
0.9646527
40
1.8008286
50
318.5132453
51
320.7828378
0
ARC
8
DEFAULT_255_1_234
10
5.6654644
20
0.5343426
40
1.1191493
50
320.7372736
51
323.9737074
0
ARC
8
DEFAULT_255_1_234
10
6.0574501
20
0.2503361
40
0.6350923
50
323.8961724
51
328.6421089
0
ARC
8
DEFAULT_255_1_234
10
6.2621096
20
0.1241031
40
0.3946393
50
328.8299013
51
331.789948
0
ARC
8
DEFAULT_255_1_234
10
6.3618274
20
0.0726509
40
0.2824501
50
331.4255242
51
352.9364833
0
ARC
8
DEFAULT_255_1_234
10
6.3754775
20
0.0695976
40
0.2685315
50
353.2248685
51
0.0169286
0
ARC
8
DEFAULT_255_1_234
10
6.3964652
20
0.071895
40
0.2475536
50
359.4866256
51
15.9339782
0
ARC
8
DEFAULT_255_1_234
10
6.4471637
20
0.0855286
40
0.1950618
50
16.1714718
51
43.5284424
0
ARC
8
DEFAULT_255_1_234
10
6.4548946
20
0.0932573
40
0.184134
50
43.4415429
51
83.1661404
0
ARC
8
DEFAULT_255_1_234
10
6.4414864
20
0.0195771
40
0.258926
50
82.160215
51
90.1505798
0
ARC
8
DEFAULT_255_1_234
10
6.4383291
20
-0.0341135
40
0.3126255
50
89.5460705
51
102.5418777
0
ARC
8
DEFAULT_255_1_234
10
6.4140377
20
0.0689665
40
0.2067346
50
102.1739365
51
129.2061916
0
ARC
8
DEFAULT_255_1_234
10
6.4061449
20
0.0814094
40
0.1921118
50
129.7279328
51
135.7542026
0
ARC
8
DEFAULT_255_1_234
10
6.4182977
20
0.0717045
40
0.2075944
50
136.175737
51
166.3674722
0
ARC
8
DEFAULT_255_1_234
10
6.5189896
20
0.0447182
40
0.3118201
50
165.9092917
51
178.8683903
0
ARC
8
DEFAULT_255_1_234
10
6.6054757
20
0.0400179
40
0.3983935
50
178.438168
51
180.0083905
0
ARC
8
DEFAULT_255_1_234
10
6.4653359
20
0.0439231
40
0.4068601
50
163.2878735
51
180.5581814
0
ARC
8
DEFAULT_255_1_234
10
6.3851621
20
0.065984
40
0.3237344
50
133.454115
51
162.9470031
0
ARC
8
DEFAULT_255_1_234
10
6.4030162
20
0.047
40
0.349795
50
100.7869394
51
133.4384016
0
ARC
8
DEFAULT_255_1_234
10
6.4377934
20
-0.1078681
40
0.5084616
50
89.6605301
51
101.3704185
0
ARC
8
DEFAULT_255_1_234
10
6.4444273
20
-0.1017504
40
0.502348
50
78.2171172
51
90.4130393
0
ARC
8
DEFAULT_255_1_234
10
6.4799351
20
0.0606637
40
0.3361092
50
55.9268222
51
78.4888551
0
ARC
8
DEFAULT_255_1_234
10
6.4995791
20
0.0945324
40
0.2970617
50
47.9292255
51
55.4054003
0
ARC
8
DEFAULT_255_1_234
10
6.5097352
20
0.1048502
40
0.2825983
50
4.3347696
51
48.0560701
0
ARC
8
DEFAULT_255_1_234
10
6.4001745
20
0.0878601
40
0.393225
50
359.925209
51
5.5967654
0
ARC
8
DEFAULT_255_1_234
10
6.4430637
20
0.0934816
40
0.3503892
50
337.8914096
51
358.9967724
0
ARC
8
DEFAULT_255_1_234
10
6.1717049
20
0.1981706
40
0.6412172
50
326.9135351
51
338.3505194
0
ARC
8
DEFAULT_255_1_234
10
5.7731353
20
0.4536284
40
1.1146189
50
319.6472867
51
327.095818
0
ARC
8
DEFAULT_255_1_234
10
5.3898356
20
0.7698
40
1.6114559
50
317.2586784
51
319.9046139
0
LINE
8
DEFAULT_255_1_234
10
7.1981988
20
0.3845211
11
7.1981988
21
-0.6588017
0
LINE
8
DEFAULT_255_1_234
10
7.1981988
20
-0.6588017
11
7.7523888
21
-0.6588017
0
LINE
8
DEFAULT_255_1_234
10
7.7523888
20
-0.6588017
11
7.7523888
21
-0.7849
0
LINE
8
DEFAULT_255_1_234
10
7.7523888
20
-0.7849
11
7.0431863
21
-0.7849
0
LINE
8
DEFAULT_255_1_234
10
7.0431863
20
-0.7849
11
7.0431863
21
0.3845211
0
LINE
8
DEFAULT_255_1_234
10
7.0431863
20
0.3845211
11
7.1981988
21
0.3845211
0
LINE
8
DEFAULT_255_1_234
10
6.2943137
20
3.0359433
11
6.2943137
21
1.8609
0
LINE
8
DEFAULT_255_1_234
10
6.2943137
20
1.8609
11
6.1449234
21
1.8609
0
LINE
8
DEFAULT_255_1_234
10
6.1449234
20
1.8609
11
6.1449234
21
2.8512133
0
LINE
8
DEFAULT_255_1_234
10
6.1449234
20
2.8512133
11
5.8453396
21
2.7411785
0
LINE
8
DEFAULT_255_1_234
10
5.8453396
20
2.7411785
11
5.8453396
21
2.8761117
0
LINE
8
DEFAULT_255_1_234
10
5.8453396
20
2.8761117
11
6.2710217
21
3.0359433
0
LINE
8
DEFAULT_255_1_234
10
6.2710217
20
3.0359433
11
6.2943137
21
3.0359433
0
LINE
8
DEFAULT_255_1_234
10
7.6669378
20
3.0303211
11
7.6669378
21
1.8609
0
LINE
8
DEFAULT_255_1_234
10
7.6669378
20
1.8609
11
7.5119252
21
1.8609
0
LINE
8
DEFAULT_255_1_234
10
7.5119252
20
1.8609
11
6.9231988
21
2.762061
0
LINE
8
DEFAULT_255_1_234
10
6.9231988
20
2.762061
11
6.9231988
21
1.8609
0
LINE
8
DEFAULT_255_1_234
10
6.9231988
20
1.8609
11
6.7681863
21
1.8609
0
LINE
8
DEFAULT_255_1_234
10
6.7681863
20
1.8609
11
6.7681863
21
3.0303211
0
LINE
8
DEFAULT_255_1_234
10
6.7681863
20
3.0303211
11
6.9231988
21
3.0303211
0
LINE
8
DEFAULT_255_1_234
10
6.9231988
20
3.0303211
11
7.5135316
21
2.1251442
0
LINE
8
DEFAULT_255_1_234
10
7.5135316
20
2.1251442
11
7.5135316
21
3.0303211
0
LINE
8
DEFAULT_255_1_234
10
7.5135316
20
3.0303211
11
7.6669378
21
3.0303211
0
ENDSEC
0
EOF