0
SECTION
2
HEADER
9
$MEASUREMENT
70
1
0
ENDSEC
0
SECTION
2
TABLES
0
TABLE
2
LTYPE
0
LTYPE
72
65
70
64
2
CONTINUOUS
3
______
73
0
40
0
0
ENDTAB
0
TABLE
2
LAYER
0
LAYER
2
DEFAULT_255_2_778
70
0
62
255
6
CONTINUOUS
0
LAYER
2
DEFAULT_255_2_778_3
70
0
62
255
6
CONTINUOUS
0
LAYER
2
DEFAULT_255_1_234
70
0
62
255
6
CONTINUOUS
0
ENDTAB
0
ENDSEC
0
SECTION
2
ENTITIES
0
LINE
8
DEFAULT_255_2_778
10
2.7781542
20
2.9091
11
6.0854542
21
2.9091
0
ARC
8
DEFAULT_255_2_778
10
6.7454557
20
2.9105443
40
0.6600157
50
89.871003
51
180.128997
0
ARC
8
DEFAULT_255_2_778
10
6.748349
20
2.9105655
40
0.6599943
50
359.8691577
51
90.1221758
0
ARC
8
DEFAULT_255_2_778
10
6.7483705
20
2.9076295
40
0.6599728
50
269.8759594
51
0.1240406
0
ARC
8
DEFAULT_255_2_778
10
6.7454345
20
2.9076508
40
0.6599942
50
179.8778094
51
270.1308423
0
LINE
8
DEFAULT_255_2_778
10
6.0854417
20
2.9090583
11
6.0854417
21
2.9090583
0
ARC
8
DEFAULT_255_2_778
10
12.0370557
20
2.9105443
40
0.6600157
50
89.871003
51
180.128997
0
ARC
8
DEFAULT_255_2_778
10
12.039949
20
2.9105655
40
0.6599943
50
359.8691577
51
90.1221758
0
ARC
8
DEFAULT_255_2_778
10
12.0399705
20
2.9076295
40
0.6599728
50
269.8759594
51
0.1240406
0
ARC
8
DEFAULT_255_2_778
10
12.0370345
20
2.9076508
40
0.6599942
50
179.8778094
51
270.1308423
0
LINE
8
DEFAULT_255_2_778
10
11.3770417
20
2.9090583
11
11.3770417
21
2.9090583
0
LINE
8
DEFAULT_255_2_778
10
2.7781542
20
-2.3826
11
6.0854542
21
-2.3826
0
ARC
8
DEFAULT_255_2_778
10
6.7454557
20
-2.3811557
40
0.6600157
50
89.871003
51
180.128997
0
ARC
8
DEFAULT_255_2_778
10
6.748349
20
-2.3811345
40
0.6599943
50
359.8691577
51
90.1221758
0
ARC
8
DEFAULT_255_2_778
10
6.7483705
20
-2.3840705
40
0.6599728
50
269.8759594
51
0.1240406
0
ARC
8
DEFAULT_255_2_778
10
6.7454345
20
-2.3840492
40
0.6599942
50
179.8778094
51
270.1308423
0
LINE
8
DEFAULT_255_2_778
10
6.0854417
20
-2.3826417
11
6.0854417
21
-2.3826417
0
ARC
8
DEFAULT_255_2_778
10
12.0370557
20
-2.3811557
40
0.6600157
50
89.871003
51
180.128997
0
ARC
8
DEFAULT_255_2_778
10
12.039949
20
-2.3811345
40
0.6599943
50
359.8691577
51
90.1221758
0
ARC
8
DEFAULT_255_2_778
10
12.0399705
20
-2.3840705
40
0.6599728
50
269.8759594
51
0.1240406
0
ARC
8
DEFAULT_255_2_778
10
12.0370345
20
-2.3840492
40
0.6599942
50
179.8778094
51
270.1308423
0
LINE
8
DEFAULT_255_2_778
10
11.3770417
20
-2.3826417
11
11.3770417
21
-2.3826417
0
ARC
8
DEFAULT_255_2_778
10
8.9984875
20
-1.819705
40
6.772323
50
63.3270255
51
70.9251681
0
ARC
8
DEFAULT_255_2_778
10
9.3212028
20
-0.8758678
40
5.7748463
50
70.8909106
51
81.9325437
0
ARC
8
DEFAULT_255_2_778
10
9.3913102
20
-0.4431149
40
5.3365441
50
82.0257535
51
89.9854359
0
ARC
8
DEFAULT_255_2_778
10
9.4019656
20
-0.561129
40
5.454566
50
90.0976772
51
105.0340903
0
ARC
8
DEFAULT_255_2_778
10
9.6211462
20
-1.3946884
40
6.3164498
50
104.9928929
51
113.855152
0
ARC
8
DEFAULT_255_2_778
10
9.9407508
20
-2.1507399
40
7.1371816
50
113.7470522
51
116.5833575
0
ARC
8
DEFAULT_255_2_778
10
8.9984875
20
-7.111305
40
6.772323
50
63.3270255
51
70.9251681
0
ARC
8
DEFAULT_255_2_778
10
9.3212028
20
-6.1674678
40
5.7748463
50
70.8909106
51
81.9325437
0
ARC
8
DEFAULT_255_2_778
10
9.3913102
20
-5.7347149
40
5.3365441
50
82.0257535
51
89.9854359
0
ARC
8
DEFAULT_255_2_778
10
9.4019656
20
-5.852729
40
5.454566
50
90.0976772
51
105.0340903
0
ARC
8
DEFAULT_255_2_778
10
9.6211462
20
-6.6862884
40
6.3164498
50
104.9928929
51
113.855152
0
ARC
8
DEFAULT_255_2_778
10
9.9407508
20
-7.4423399
40
7.1371816
50
113.7470522
51
116.5833575
0
LINE
8
DEFAULT_255_2_778_3
10
9.3927
20
4.8934333
11
9.3927
21
-0.3982667
0
ARC
8
DEFAULT_255_2_778
10
17.2666339
20
2.9377485
40
0.9635442
50
89.9956602
51
90.1522665
0
ARC
8
DEFAULT_255_2_778
10
17.2666807
20
2.9117336
40
0.9895592
50
45.0025854
51
89.9984837
0
ARC
8
DEFAULT_255_2_778
10
17.2669727
20
2.9119427
40
0.9892051
50
0.0088025
51
45.0059796
0
ARC
8
DEFAULT_255_2_778
10
17.2296258
20
2.9121632
40
1.026552
50
359.828433
51
359.9961749
0
ARC
8
DEFAULT_255_2_778
10
17.267603
20
2.9076567
40
0.9885713
50
318.0148844
51
0.0830319
0
ARC
8
DEFAULT_255_2_778
10
17.265225
20
2.9064404
40
0.9895283
50
271.5200091
51
318.1593381
0
ARC
8
DEFAULT_255_2_778
10
17.2640866
20
2.9273472
40
1.010458
50
269.9992412
51
271.5530895
0
ARC
8
DEFAULT_255_2_778
10
17.262636
20
2.9054185
40
0.9885303
50
228.0131039
51
270.0833043
0
ARC
8
DEFAULT_255_2_778
10
17.2615465
20
2.9079007
40
0.9896493
50
181.5303314
51
228.1561218
0
ARC
8
DEFAULT_255_2_778
10
17.2831831
20
2.909075
40
1.0113097
50
179.9991879
51
181.564101
0
LINE
8
DEFAULT_255_2_778
10
16.2718733
20
2.9090893
11
12.6999733
21
2.9090893
0
ARC
8
DEFAULT_255_2_778
10
19.2521651
20
2.9105539
40
0.9885303
50
359.9166957
51
41.9868961
0
ARC
8
DEFAULT_255_2_778
10
19.2496829
20
2.9116434
40
0.9896493
50
41.8438782
51
88.4696686
0
ARC
8
DEFAULT_255_2_778
10
19.2485086
20
2.8900068
40
1.0113097
50
88.435899
51
90.0008121
0
ARC
8
DEFAULT_255_2_778
10
19.247057
20
2.9127874
40
0.9885303
50
89.9166957
51
131.9868961
0
ARC
8
DEFAULT_255_2_778
10
19.2459675
20
2.9103053
40
0.9896493
50
131.8438782
51
178.4696686
0
ARC
8
DEFAULT_255_2_778
10
19.2676041
20
2.909131
40
1.0113097
50
178.435899
51
180.0008121
0
ARC
8
DEFAULT_255_2_778
10
19.2204914
20
2.906555
40
0.9642005
50
179.8477797
51
180.0043385
0
ARC
8
DEFAULT_255_2_778
10
19.2460822
20
2.9065054
40
0.9897915
50
180.0013532
51
224.9918457
0
ARC
8
DEFAULT_255_2_778
10
19.245883
20
2.9067046
40
0.9897916
50
225.0081543
51
269.9986468
0
ARC
8
DEFAULT_255_2_778
10
19.2459327
20
2.8811137
40
0.9642006
50
269.9956615
51
270.1522203
0
LINE
8
DEFAULT_255_2_778
10
29.2364943
20
2.9091166
11
25.2677943
21
2.9091166
0
LINE
8
DEFAULT_255_2_778
10
25.2677943
20
2.9091166
11
24.6062943
21
1.5862166
0
LINE
8
DEFAULT_255_2_778
10
24.6062943
20
1.5862166
11
23.2833943
21
4.2320166
0
LINE
8
DEFAULT_255_2_778
10
23.2833943
20
4.2320166
11
22.6218943
21
2.9091166
0
LINE
8
DEFAULT_255_2_778
10
22.6218943
20
2.9091166
11
20.2406943
21
2.9091166
0
ARC
8
DEFAULT_255_2_778
10
19.2521651
20
-2.3811461
40
0.9885303
50
359.9166957
51
41.9868961
0
ARC
8
DEFAULT_255_2_778
10
19.2496829
20
-2.3800566
40
0.9896493
50
41.8438782
51
88.4696686
0
ARC
8
DEFAULT_255_2_778
10
19.2485086
20
-2.4016932
40
1.0113097
50
88.435899
51
90.0008121
0
ARC
8
DEFAULT_255_2_778
10
19.247057
20
-2.3789126
40
0.9885303
50
89.9166957
51
131.9868961
0
ARC
8
DEFAULT_255_2_778
10
19.2459675
20
-2.3813947
40
0.9896493
50
131.8438782
51
178.4696686
0
ARC
8
DEFAULT_255_2_778
10
19.2676041
20
-2.382569
40
1.0113097
50
178.435899
51
180.0008121
0
ARC
8
DEFAULT_255_2_778
10
19.2204914
20
-2.385145
40
0.9642005
50
179.8477797
51
180.0043385
0
ARC
8
DEFAULT_255_2_778
10
19.2460822
20
-2.3851946
40
0.9897915
50
180.0013532
51
224.9918457
0
ARC
8
DEFAULT_255_2_778
10
19.245883
20
-2.3849954
40
0.9897916
50
225.0081543
51
269.9986468
0
ARC
8
DEFAULT_255_2_778
10
19.2459327
20
-2.4105863
40
0.9642006
50
269.9956615
51
270.1522203
0
LINE
8
DEFAULT_255_2_778
10
29.2364943
20
-2.3825834
11
25.2677943
21
-2.3825834
0
LINE
8
DEFAULT_255_2_778
10
25.2677943
20
-2.3825834
11
24.6062943
21
-3.7054834
0
LINE
8
DEFAULT_255_2_778
10
24.6062943
20
-3.7054834
11
23.2833943
21
-1.0596834
0
LINE
8
DEFAULT_255_2_778
10
23.2833943
20
-1.0596834
11
22.6218943
21
-2.3825834
0
LINE
8
DEFAULT_255_2_778
10
22.6218943
20
-2.3825834
11
20.2406943
21
-2.3825834
0
ARC
8
DEFAULT_255_2_778
10
17.2654797
20
-2.3788165
40
0.9884068
50
47.8380283
51
90.0814201
0
ARC
8
DEFAULT_255_2_778
10
17.2664973
20
-2.3814162
40
0.9896539
50
1.5118519
51
47.9827268
0
ARC
8
DEFAULT_255_2_778
10
17.2461319
20
-2.382583
40
1.0100432
50
359.9984293
51
1.5475385
0
ARC
8
DEFAULT_255_2_778
10
17.2676048
20
-2.3840433
40
0.9885713
50
318.0148844
51
0.0830319
0
ARC
8
DEFAULT_255_2_778
10
17.2652268
20
-2.3852596
40
0.9895283
50
271.5200091
51
318.1593381
0
ARC
8
DEFAULT_255_2_778
10
17.2640885
20
-2.3643528
40
1.010458
50
269.9992412
51
271.5530895
0
ARC
8
DEFAULT_255_2_778
10
17.2615134
20
-2.4106124
40
0.9642017
50
269.9956615
51
270.1522203
0
ARC
8
DEFAULT_255_2_778
10
17.2613915
20
-2.3851974
40
0.9896168
50
225.0039672
51
270.002835
0
ARC
8
DEFAULT_255_2_778
10
17.261663
20
-2.385222
40
0.9897916
50
180.0013532
51
224.9918457
0
ARC
8
DEFAULT_255_2_778
10
17.2360722
20
-2.3851723
40
0.9642006
50
179.8477797
51
180.0043385
0
LINE
8
DEFAULT_255_2_778
10
16.2718751
20
-2.3826107
11
12.6999751
21
-2.3826107
0
LINE
8
DEFAULT_255_1_234
10
4.4811137
20
5.0203433
11
4.4811137
21
3.8453
0
LINE
8
DEFAULT_255_1_234
10
4.4811137
20
3.8453
11
4.3317234
21
3.8453
0
LINE
8
DEFAULT_255_1_234
10
4.3317234
20
3.8453
11
4.3317234
21
4.8356133
0
LINE
8
DEFAULT_255_1_234
10
4.3317234
20
4.8356133
11
4.0321396
21
4.7255785
0
LINE
8
DEFAULT_255_1_234
10
4.0321396
20
4.7255785
11
4.0321396
21
4.8605117
0
LINE
8
DEFAULT_255_1_234
10
4.0321396
20
4.8605117
11
4.4578217
21
5.0203433
0
LINE
8
DEFAULT_255_1_234
10
4.4578217
20
5.0203433
11
4.4811137
21
5.0203433
0
LINE
8
DEFAULT_255_1_234
10
26.9922119
20
3.9665792
11
26.9922119
21
3.8453
0
LINE
8
DEFAULT_255_1_234
10
26.9922119
20
3.8453
11
26.225984
21
3.8453
0
LINE
8
DEFAULT_255_1_234
10
26.225984
20
3.8453
11
26.225984
21
3.9521221
0
LINE
8
DEFAULT_255_1_234
10
26.225984
20
3.9521221
11
26.6307836
21
4.4018995
0
LINE
8
DEFAULT_255_1_234
10
26.3520823
20
4.6701595
11
26.2034952
21
4.6701595
0
LINE
8
DEFAULT_255_1_234
10
26.7183296
20
4.3063218
11
26.4050918
21
3.9665792
0
LINE
8
DEFAULT_255_1_234
10
26.4050918
20
3.9665792
11
26.9922119
21
3.9665792
0
ARC
8
DEFAULT_255_1_234
10
25.281767
20
5.5948527
40
1.8008286
50
318.5132453
51
320.7828378
0
ARC
8
DEFAULT_255_1_234
10
25.8104644
20
5.1645426
40
1.1191493
50
320.7372736
51
323.9737074
0
ARC
8
DEFAULT_255_1_234
10
26.2024501
20
4.8805361
40
0.6350923
50
323.8961724
51
328.6421089
0
ARC
8
DEFAULT_255_1_234
10
26.4071096
20
4.7543031
40
0.3946393
50
328.8299013
51
331.789948
0
ARC
8
DEFAULT_255_1_234
10
26.5068274
20
4.7028509
40
0.2824501
50
331.4255242
51
352.9364833
0
ARC
8
DEFAULT_255_1_234
10
26.5204775
20
4.6997976
40
0.2685315
50
353.2248685
51
0.0169286
0
ARC
8
DEFAULT_255_1_234
10
26.5414652
20
4.702095
40
0.2475536
50
359.4866256
51
15.9339782
0
ARC
8
DEFAULT_255_1_234
10
26.5921637
20
4.7157286
40
0.1950618
50
16.1714718
51
43.5284424
0
ARC
8
DEFAULT_255_1_234
10
26.5998946
20
4.7234573
40
0.184134
50
43.4415429
51
83.1661404
0
ARC
8
DEFAULT_255_1_234
10
26.5864864
20
4.6497771
40
0.258926
50
82.160215
51
90.1505798
0
ARC
8
DEFAULT_255_1_234
10
26.5833291
20
4.5960865
40
0.3126255
50
89.5460705
51
102.5418777
0
ARC
8
DEFAULT_255_1_234
10
26.5590377
20
4.6991665
40
0.2067346
50
102.1739365
51
129.2061916
0
ARC
8
DEFAULT_255_1_234
10
26.5511449
20
4.7116094
40
0.1921118
50
129.7279328
51
135.7542026
0
ARC
8
DEFAULT_255_1_234
10
26.5632977
20
4.7019045
40
0.2075944
50
136.175737
51
166.3674722
0
ARC
8
DEFAULT_255_1_234
10
26.6639896
20
4.6749182
40
0.3118201
50
165.9092917
51
178.8683903
0
ARC
8
DEFAULT_255_1_234
10
26.7504757
20
4.6702179
40
0.3983935
50
178.438168
51
180.0083905
0
ARC
8
DEFAULT_255_1_234
10
26.6103359
20
4.6741231
40
0.4068601
50
163.2878735
51
180.5581814
0
ARC
8
DEFAULT_255_1_234
10
26.5301621
20
4.696184
40
0.3237344
50
133.454115
51
162.9470031
0
ARC
8
DEFAULT_255_1_234
10
26.5480162
20
4.6772
40
0.349795
50
100.7869394
51
133.4384016
0
ARC
8
DEFAULT_255_1_234
10
26.5827934
20
4.5223319
40
0.5084616
50
89.6605301
51
101.3704185
0
ARC
8
DEFAULT_255_1_234
10
26.5894273
20
4.5284496
40
0.502348
50
78.2171172
51
90.4130393
0
ARC
8
DEFAULT_255_1_234
10
26.6249351
20
4.6908637
40
0.3361092
50
55.9268222
51
78.4888551
0
ARC
8
DEFAULT_255_1_234
10
26.6445791
20
4.7247324
40
0.2970617
50
47.9292255
51
55.4054003
0
ARC
8
DEFAULT_255_1_234
10
26.6547352
20
4.7350502
40
0.2825983
50
4.3347696
51
48.0560701
0
ARC
8
DEFAULT_255_1_234
10
26.5451745
20
4.7180601
40
0.393225
50
359.925209
51
5.5967654
0
ARC
8
DEFAULT_255_1_234
10
26.5880637
20
4.7236816
40
0.3503892
50
337.8914096
51
358.9967724
0
ARC
8
DEFAULT_255_1_234
10
26.3167049
20
4.8283706
40
0.6412172
50
326.9135351
51
338.3505194
0
ARC
8
DEFAULT_255_1_234
10
25.9181353
20
5.0838284
40
1.1146189
50
319.6472867
51
327.095818
0
ARC
8
DEFAULT_255_1_234
10
25.5348356
20
5.4
40
1.6114559
50
317.2586784
51
319.9046139
0
LINE
8
DEFAULT_255_1_234
10
4.2170378
20
-0.9105831
11
4.2170378
21
-0.7893038
0
LINE
8
DEFAULT_255_1_234
10
4.2170378
20
-0.7893038
11
4.328679
21
-0.7893038
0
LINE
8
DEFAULT_255_1_234
10
4.1383268
20
-0.5836913
11
3.9897396
21
-0.5836913
0
LINE
8
DEFAULT_255_1_234
10
3.9792983
20
-1.1378812
11
4.1286887
21
-1.1378812
0
LINE
8
DEFAULT_255_1_234
10
4.328679
20
-0.9105831
11
4.2170378
21
-0.9105831
0
ARC
8
DEFAULT_255_1_234
10
4.3257656
20
-0.4500287
40
0.3392876
50
270.4919872
51
281.8951556
0
ARC
8
DEFAULT_255_1_234
10
4.3498918
20
-0.5602298
40
0.2264817
50
281.6691735
51
301.2943132
0
ARC
8
DEFAULT_255_1_234
10
4.3669128
20
-0.5913696
40
0.1910381
50
301.7833094
51
311.7545298
0
ARC
8
DEFAULT_255_1_234
10
4.3760704
20
-0.6015252
40
0.1773635
50
311.7323931
51
354.2802411
0
ARC
8
DEFAULT_255_1_234
10
4.3034329
20
-0.5890278
40
0.2509385
50
353.0937916
51
0.1181479
0
ARC
8
DEFAULT_255_1_234
10
4.2573114
20
-0.5842614
40
0.2970898
50
359.1805295
51
15.0453146
0
ARC
8
DEFAULT_255_1_234
10
4.3918951
20
-0.5450008
40
0.1569564
50
13.9577229
51
77.6713066
0
ARC
8
DEFAULT_255_1_234
10
4.353248
20
-0.6835051
40
0.3006298
50
76.1116566
51
90.7026153
0
ARC
8
DEFAULT_255_1_234
10
4.3473318
20
-0.6561455
40
0.2732568
50
89.5324876
51
103.531937
0
ARC
8
DEFAULT_255_1_234
10
4.3272762
20
-0.5762116
40
0.1908508
50
103.2931773
51
133.5619022
0
ARC
8
DEFAULT_255_1_234
10
4.3228251
20
-0.5702625
40
0.1834746
50
133.8349307
51
173.5344437
0
ARC
8
DEFAULT_255_1_234
10
4.3951294
20
-0.5830787
40
0.2568033
50
172.5096846
51
180.1366907
0
ARC
8
DEFAULT_255_1_234
10
4.3000188
20
-0.5796378
40
0.3103056
50
155.3484492
51
180.7484736
0
ARC
8
DEFAULT_255_1_234
10
4.2951277
20
-0.5825154
40
0.3070957
50
131.5744599
51
154.4798489
0
ARC
8
DEFAULT_255_1_234
10
4.3264424
20
-0.614169
40
0.3515643
50
96.9875458
51
131.9690667
0
ARC
8
DEFAULT_255_1_234
10
4.3483904
20
-0.7387364
40
0.4779224
50
89.8596053
51
97.7825159
0
ARC
8
DEFAULT_255_1_234
10
4.3531967
20
-0.7649384
40
0.5041361
50
78.3655447
51
90.4131539
0
ARC
8
DEFAULT_255_1_234
10
4.3889885
20
-0.5990113
40
0.3344039
50
56.6229102
51
78.638727
0
ARC
8
DEFAULT_255_1_234
10
4.4104829
20
-0.5614195
40
0.2912001
50
47.0253525
51
56.0854072
0
ARC
8
DEFAULT_255_1_234
10
4.4124609
20
-0.5574777
40
0.2869704
50
10.9208013
51
46.7778124
0
ARC
8
DEFAULT_255_1_234
10
4.2760675
20
-0.5890143
40
0.426899
50
359.6364486
51
11.6087304
0
ARC
8
DEFAULT_255_1_234
10
4.4595519
20
-0.5905248
40
0.243409
50
332.3549906
51
359.7179418
0
ARC
8
DEFAULT_255_1_234
10
4.3945121
20
-0.5596858
40
0.3153459
50
325.2333722
51
332.8745602
0
ARC
8
DEFAULT_255_1_234
10
4.4097744
20
-0.5703172
40
0.2967456
50
292.9802137
51
325.2392345
0
ARC
8
DEFAULT_255_1_234
10
4.3823118
20
-0.5169137
40
0.3566604
50
292.5402179
51
293.6924929
0
ARC
8
DEFAULT_255_1_234
10
4.4215714
20
-1.1623909
40
0.3307468
50
57.6435486
51
72.8625112
0
ARC
8
DEFAULT_255_1_234
10
4.4570214
20
-1.1049451
40
0.2632492
50
36.7248896
51
57.4697979
0
ARC
8
DEFAULT_255_1_234
10
4.4558847
20
-1.103678
40
0.2634081
50
8.0545065
51
36.356114
0
ARC
8
DEFAULT_255_1_234
10
4.3696032
20
-1.1191826
40
0.3510261
50
359.8320645
51
8.5869982
0
ARC
8
DEFAULT_255_1_234
10
4.3320808
20
-1.1239899
40
0.3885653
50
343.9829931
51
0.5571613
0
ARC
8
DEFAULT_255_1_234
10
4.4207005
20
-1.1482562
40
0.2966924
50
311.6359546
51
343.7651759
0
ARC
8
DEFAULT_255_1_234
10
4.3828574
20
-1.1055898
40
0.3537231
50
279.7829875
51
311.6255694
0
ARC
8
DEFAULT_255_1_234
10
4.3527351
20
-0.961872
40
0.5004971
50
269.7286406
51
280.3856417
0
ARC
8
DEFAULT_255_1_234
10
4.3465423
20
-0.9660004
40
0.4963778
50
256.6828919
51
270.4412052
0
ARC
8
DEFAULT_255_1_234
10
4.3126719
20
-1.1044606
40
0.3538406
50
229.4223008
51
256.8556159
0
ARC
8
DEFAULT_255_1_234
10
4.2712112
20
-1.1511264
40
0.2914296
50
181.818294
51
229.6455059
0
ARC
8
DEFAULT_255_1_234
10
4.3752068
20
-1.1380504
40
0.3959084
50
179.9755256
51
183.2323064
0
ARC
8
DEFAULT_255_1_234
10
4.3579814
20
-1.1400963
40
0.2293034
50
179.4465117
51
196.2869258
0
ARC
8
DEFAULT_255_1_234
10
4.3092222
20
-1.1534349
40
0.1787621
50
196.5661473
51
227.705904
0
ARC
8
DEFAULT_255_1_234
10
4.3256317
20
-1.1350845
40
0.2033784
50
227.7652068
51
257.8762805
0
ARC
8
DEFAULT_255_1_234
10
4.3481287
20
-1.0407844
40
0.3003081
50
257.4584385
51
270.426602
0
ARC
8
DEFAULT_255_1_234
10
4.3526853
20
-1.0118004
40
0.329292
50
269.5962073
51
280.8789248
0
ARC
8
DEFAULT_255_1_234
10
4.3756382
20
-1.1264315
40
0.2123908
50
280.6346389
51
299.8595945
0
ARC
8
DEFAULT_255_1_234
10
4.3947289
20
-1.1626788
40
0.171457
50
300.3576302
51
314.5517981
0
ARC
8
DEFAULT_255_1_234
10
4.3864349
20
-1.1566081
40
0.1816095
50
315.0728369
51
345.0431014
0
ARC
8
DEFAULT_255_1_234
10
4.2941163
20
-1.1297159
40
0.2777492
50
344.5986631
51
357.9269593
0
ARC
8
DEFAULT_255_1_234
10
4.2045489
20
-1.1235724
40
0.3674917
50
357.4748886
51
0.0231117
0
ARC
8
DEFAULT_255_1_234
10
4.3068599
20
-1.1211321
40
0.2651907
50
359.5047933
51
13.4239635
0
ARC
8
DEFAULT_255_1_234
10
4.3935242
20
-1.0989522
40
0.1757509
50
12.9498199
51
48.7551375
0
ARC
8
DEFAULT_255_1_234
10
4.3752976
20
-1.12386
40
0.2065134
50
49.5088623
51
72.1836453
0
ARC
8
DEFAULT_255_1_234
10
4.3395129
20
-1.2300709
40
0.3185836
50
71.9010081
51
84.3554254
0
ARC
8
DEFAULT_255_1_234
10
4.3233761
20
-1.3661674
40
0.4556151
50
84.0193428
51
89.333121
0
LINE
8
DEFAULT_255_1_234
10
26.6416628
20
-0.2768789
11
26.6416628
21
-1.053548
0
LINE
8
DEFAULT_255_1_234
10
26.6416628
20
-1.053548
11
26.8039039
21
-1.053548
0
LINE
8
DEFAULT_255_1_234
10
26.8039039
20
-1.053548
11
26.8039039
21
-1.1748272
0
LINE
8
DEFAULT_255_1_234
10
26.8039039
20
-1.1748272
11
26.6416628
21
-1.1748272
0
LINE
8
DEFAULT_255_1_234
10
26.6416628
20
-1.1748272
11
26.6416628
21
-1.4463
0
LINE
8
DEFAULT_255_1_234
10
26.6416628
20
-1.4463
11
26.4922725
21
-1.4463
0
LINE
8
DEFAULT_255_1_234
10
26.4922725
20
-1.4463
11
26.4922725
21
-1.1748272
0
LINE
8
DEFAULT_255_1_234
10
26.4922725
20
-1.1748272
11
25.9597682
21
-1.1748272
0
LINE
8
DEFAULT_255_1_234
10
25.9597682
20
-1.1748272
11
25.9597682
21
-1.0872813
0
LINE
8
DEFAULT_255_1_234
10
25.9597682
20
-1.0872813
11
26.4834375
21
-0.2768789
0
LINE
8
DEFAULT_255_1_234
10
26.4834375
20
-0.2768789
11
26.6416628
21
-0.2768789
0
LINE
8
DEFAULT_255_1_234
10
26.4746026
20
-0.5122088
11
26.1284347
21
-1.053548
0
LINE
8
DEFAULT_255_1_234
10
26.1284347
20
-1.053548
11
26.4922725
21
-1.053548
0
LINE
8
DEFAULT_255_1_234
10
26.4922725
20
-1.053548
11
26.4922725
21
-0.4800819
0
LINE
8
DEFAULT_255_1_234
10
26.4922725
20
-0.4800819
11
26.4746026
21
-0.5122088
0
ENDSEC
0
EOF