0
SECTION
2
HEADER
9
$MEASUREMENT
70
1
0
ENDSEC
0
SECTION
2
TABLES
0
TABLE
2
LTYPE
0
LTYPE
72
65
70
64
2
CONTINUOUS
3
______
73
0
40
0
0
ENDTAB
0
TABLE
2
LAYER
0
LAYER
2
DEFAULT_255_2_778
70
0
62
255
6
CONTINUOUS
0
LAYER
2
DEFAULT_255_2_778_3
70
0
62
255
6
CONTINUOUS
0
LAYER
2
DEFAULT_255_1_234
70
0
62
255
6
CONTINUOUS
0
ENDTAB
0
ENDSEC
0
SECTION
2
ENTITIES
0
LINE
8
DEFAULT_255_2_778
10
7.541
20
9.6573
11
10.716
21
9.6573
0
LINE
8
DEFAULT_255_2_778
10
10.716
20
9.6573
11
10.716
21
6.4823
0
LINE
8
DEFAULT_255_2_778
10
10.716
20
6.4823
11
7.541
21
6.4823
0
LINE
8
DEFAULT_255_2_778
10
7.541
20
6.4823
11
7.541
21
9.6573
0
LINE
8
DEFAULT_255_2_778
10
7.541
20
8.0698
11
10.716
21
8.0698
0
LINE
8
DEFAULT_255_2_778
10
9.1285
20
9.6573
11
9.1285
21
6.4823
0
LINE
8
DEFAULT_255_2_778
10
6.7472585
20
-0.1322417
11
10.7159585
21
-1.4551417
0
LINE
8
DEFAULT_255_2_778
10
10.7159585
20
-1.4551417
11
21.2993585
21
-1.4551417
0
LINE
8
DEFAULT_255_2_778
10
6.7472585
20
5.1593583
11
10.7159585
21
3.8364583
0
LINE
8
DEFAULT_255_2_778
10
10.7159585
20
3.8364583
11
21.2993585
21
3.8364583
0
LINE
8
DEFAULT_255_2_778_3
10
9.1285
20
6.4822666
11
9.1285
21
-0.9260334
0
LINE
8
DEFAULT_255_2_778_3
10
9.1285
20
11.7078604
11
9.1285
21
9.6573604
0
LINE
8
DEFAULT_255_2_778
10
2.7785251
20
-1.4552
11
6.7472251
21
-1.4552
0
LINE
8
DEFAULT_255_2_778
10
2.7785251
20
3.8365
11
6.7472251
21
3.8365
0
LINE
8
DEFAULT_255_2_778
10
8.33475
20
11.774
11
9.92225
21
11.774
0
LINE
8
DEFAULT_255_2_778
10
14.6855834
20
-4.1010335
11
14.6855834
21
6.4822665
0
LINE
8
DEFAULT_255_2_778
10
14.6855834
20
6.4822665
11
17.3313834
21
6.4822665
0
LINE
8
DEFAULT_255_2_778
10
17.3313834
20
6.4822665
11
17.3313834
21
-4.1010335
0
LINE
8
DEFAULT_255_2_778
10
17.3313834
20
-4.1010335
11
14.6855834
21
-4.1010335
0
LINE
8
DEFAULT_255_2_778
10
15.347
20
3.4395833
11
15.347
21
2.9103833
0
LINE
8
DEFAULT_255_2_778
10
15.3470417
20
3.1749917
11
16.6699417
21
2.9103917
0
LINE
8
DEFAULT_255_2_778
10
16.6699
20
3.1749833
11
16.6699
21
2.6457833
0
LINE
8
DEFAULT_255_2_778
10
15.3470417
20
3.9687667
11
16.0085417
21
5.0270667
0
LINE
8
DEFAULT_255_2_778
10
16.0085417
20
5.0270667
11
16.6699417
21
3.9687667
0
LINE
8
DEFAULT_255_2_778
10
15.347
20
-1.8521167
11
15.347
21
-2.3813167
0
LINE
8
DEFAULT_255_2_778
10
15.3470417
20
-2.1167083
11
16.6699417
21
-2.3813083
0
LINE
8
DEFAULT_255_2_778
10
16.6699
20
-2.1166167
11
16.6699
21
-2.6458167
0
LINE
8
DEFAULT_255_2_778
10
15.3470417
20
-1.3228333
11
16.0085417
21
-0.2645333
0
LINE
8
DEFAULT_255_2_778
10
16.0085417
20
-0.2645333
11
16.6699417
21
-1.3228333
0
LINE
8
DEFAULT_255_2_778
10
12.0389834
20
-4.1010335
11
12.0389834
21
6.4822665
0
LINE
8
DEFAULT_255_2_778
10
12.0389834
20
6.4822665
11
14.6847834
21
6.4822665
0
LINE
8
DEFAULT_255_2_778
10
14.6847834
20
6.4822665
11
14.6847834
21
-4.1010335
0
LINE
8
DEFAULT_255_2_778
10
14.6847834
20
-4.1010335
11
12.0389834
21
-4.1010335
0
LINE
8
DEFAULT_255_2_778
10
12.0389834
20
3.8364583
11
12.8326834
21
3.8364583
0
LINE
8
DEFAULT_255_2_778
10
12.8326834
20
3.8364583
11
12.8326834
21
5.1593583
0
LINE
8
DEFAULT_255_2_778
10
12.8326834
20
5.1593583
11
13.8910834
21
5.1593583
0
LINE
8
DEFAULT_255_2_778
10
13.8910834
20
5.1593583
11
13.8910834
21
3.8364583
0
LINE
8
DEFAULT_255_2_778
10
13.8910834
20
3.8364583
11
14.6847834
21
3.8364583
0
LINE
8
DEFAULT_255_2_778
10
12.0389834
20
-1.4551417
11
12.8326834
21
-1.4551417
0
LINE
8
DEFAULT_255_2_778
10
12.8326834
20
-1.4551417
11
12.8326834
21
-0.1322417
0
LINE
8
DEFAULT_255_2_778
10
12.8326834
20
-0.1322417
11
13.8910834
21
-0.1322417
0
LINE
8
DEFAULT_255_2_778
10
13.8910834
20
-0.1322417
11
13.8910834
21
-1.4551417
0
LINE
8
DEFAULT_255_2_778
10
13.8910834
20
-1.4551417
11
14.6847834
21
-1.4551417
0
LINE
8
DEFAULT_255_2_778_3
10
10.7160344
20
8.0698
11
16.0079344
21
8.0698
0
LINE
8
DEFAULT_255_2_778_3
10
13.3613
20
8.06975
11
13.3613
21
6.48225
0
LINE
8
DEFAULT_255_2_778_3
10
16.008
20
8.06975
11
16.008
21
6.48225
0
LINE
8
DEFAULT_255_1_234
10
4.4807137
20
5.9477433
11
4.4807137
21
4.7727
0
LINE
8
DEFAULT_255_1_234
10
4.4807137
20
4.7727
11
4.3313234
21
4.7727
0
LINE
8
DEFAULT_255_1_234
10
4.3313234
20
4.7727
11
4.3313234
21
5.7630133
0
LINE
8
DEFAULT_255_1_234
10
4.3313234
20
5.7630133
11
4.0317396
21
5.6529785
0
LINE
8
DEFAULT_255_1_234
10
4.0317396
20
5.6529785
11
4.0317396
21
5.7879117
0
LINE
8
DEFAULT_255_1_234
10
4.0317396
20
5.7879117
11
4.4574217
21
5.9477433
0
LINE
8
DEFAULT_255_1_234
10
4.4574217
20
5.9477433
11
4.4807137
21
5.9477433
0
LINE
8
DEFAULT_255_1_234
10
19.0559119
20
4.8939792
11
19.0559119
21
4.7727
0
LINE
8
DEFAULT_255_1_234
10
19.0559119
20
4.7727
11
18.289684
21
4.7727
0
LINE
8
DEFAULT_255_1_234
10
18.289684
20
4.7727
11
18.289684
21
4.8795221
0
LINE
8
DEFAULT_255_1_234
10
18.289684
20
4.8795221
11
18.6944836
21
5.3292995
0
LINE
8
DEFAULT_255_1_234
10
18.4157823
20
5.5975595
11
18.2671952
21
5.5975595
0
LINE
8
DEFAULT_255_1_234
10
18.7820296
20
5.2337218
11
18.4687918
21
4.8939792
0
LINE
8
DEFAULT_255_1_234
10
18.4687918
20
4.8939792
11
19.0559119
21
4.8939792
0
ARC
8
DEFAULT_255_1_234
10
17.345467
20
6.5222527
40
1.8008286
50
318.5132453
51
320.7828378
0
ARC
8
DEFAULT_255_1_234
10
17.8741644
20
6.0919426
40
1.1191493
50
320.7372736
51
323.9737074
0
ARC
8
DEFAULT_255_1_234
10
18.2661501
20
5.8079361
40
0.6350923
50
323.8961724
51
328.6421089
0
ARC
8
DEFAULT_255_1_234
10
18.4708096
20
5.6817031
40
0.3946393
50
328.8299013
51
331.789948
0
ARC
8
DEFAULT_255_1_234
10
18.5705274
20
5.6302509
40
0.2824501
50
331.4255242
51
352.9364833
0
ARC
8
DEFAULT_255_1_234
10
18.5841775
20
5.6271976
40
0.2685315
50
353.2248685
51
0.0169286
0
ARC
8
DEFAULT_255_1_234
10
18.6051652
20
5.629495
40
0.2475536
50
359.4866256
51
15.9339782
0
ARC
8
DEFAULT_255_1_234
10
18.6558637
20
5.6431286
40
0.1950618
50
16.1714718
51
43.5284424
0
ARC
8
DEFAULT_255_1_234
10
18.6635946
20
5.6508573
40
0.184134
50
43.4415429
51
83.1661404
0
ARC
8
DEFAULT_255_1_234
10
18.6501864
20
5.5771771
40
0.258926
50
82.160215
51
90.1505798
0
ARC
8
DEFAULT_255_1_234
10
18.6470291
20
5.5234865
40
0.3126255
50
89.5460705
51
102.5418777
0
ARC
8
DEFAULT_255_1_234
10
18.6227377
20
5.6265665
40
0.2067346
50
102.1739365
51
129.2061916
0
ARC
8
DEFAULT_255_1_234
10
18.6148449
20
5.6390094
40
0.1921118
50
129.7279328
51
135.7542026
0
ARC
8
DEFAULT_255_1_234
10
18.6269977
20
5.6293045
40
0.2075944
50
136.175737
51
166.3674722
0
ARC
8
DEFAULT_255_1_234
10
18.7276896
20
5.6023182
40
0.3118201
50
165.9092917
51
178.8683903
0
ARC
8
DEFAULT_255_1_234
10
18.8141757
20
5.5976179
40
0.3983935
50
178.438168
51
180.0083905
0
ARC
8
DEFAULT_255_1_234
10
18.6740359
20
5.6015231
40
0.4068601
50
163.2878735
51
180.5581814
0
ARC
8
DEFAULT_255_1_234
10
18.5938621
20
5.623584
40
0.3237344
50
133.454115
51
162.9470031
0
ARC
8
DEFAULT_255_1_234
10
18.6117162
20
5.6046
40
0.349795
50
100.7869394
51
133.4384016
0
ARC
8
DEFAULT_255_1_234
10
18.6464934
20
5.4497319
40
0.5084616
50
89.6605301
51
101.3704185
0
ARC
8
DEFAULT_255_1_234
10
18.6531273
20
5.4558496
40
0.502348
50
78.2171172
51
90.4130393
0
ARC
8
DEFAULT_255_1_234
10
18.6886351
20
5.6182637
40
0.3361092
50
55.9268222
51
78.4888551
0
ARC
8
DEFAULT_255_1_234
10
18.7082791
20
5.6521324
40
0.2970617
50
47.9292255
51
55.4054003
0
ARC
8
DEFAULT_255_1_234
10
18.7184352
20
5.6624502
40
0.2825983
50
4.3347696
51
48.0560701
0
ARC
8
DEFAULT_255_1_234
10
18.6088745
20
5.6454601
40
0.393225
50
359.925209
51
5.5967654
0
ARC
8
DEFAULT_255_1_234
10
18.6517637
20
5.6510816
40
0.3503892
50
337.8914096
51
358.9967724
0
ARC
8
DEFAULT_255_1_234
10
18.3804049
20
5.7557706
40
0.6412172
50
326.9135351
51
338.3505194
0
ARC
8
DEFAULT_255_1_234
10
17.9818353
20
6.0112284
40
1.1146189
50
319.6472867
51
327.095818
0
ARC
8
DEFAULT_255_1_234
10
17.5985356
20
6.3274
40
1.6114559
50
317.2586784
51
319.9046139
0
LINE
8
DEFAULT_255_1_234
10
4.2166378
20
0.0170169
11
4.2166378
21
0.1382962
0
LINE
8
DEFAULT_255_1_234
10
4.2166378
20
0.1382962
11
4.328279
21
0.1382962
0
LINE
8
DEFAULT_255_1_234
10
4.1379268
20
0.3439087
11
3.9893396
21
0.3439087
0
LINE
8
DEFAULT_255_1_234
10
3.9788983
20
-0.2102812
11
4.1282887
21
-0.2102812
0
LINE
8
DEFAULT_255_1_234
10
4.328279
20
0.0170169
11
4.2166378
21
0.0170169
0
ARC
8
DEFAULT_255_1_234
10
4.3253656
20
0.4775713
40
0.3392876
50
270.4919872
51
281.8951556
0
ARC
8
DEFAULT_255_1_234
10
4.3494918
20
0.3673702
40
0.2264817
50
281.6691735
51
301.2943132
0
ARC
8
DEFAULT_255_1_234
10
4.3665128
20
0.3362304
40
0.1910381
50
301.7833094
51
311.7545298
0
ARC
8
DEFAULT_255_1_234
10
4.3756704
20
0.3260748
40
0.1773635
50
311.7323931
51
354.2802411
0
ARC
8
DEFAULT_255_1_234
10
4.3030329
20
0.3385722
40
0.2509385
50
353.0937916
51
0.1181479
0
ARC
8
DEFAULT_255_1_234
10
4.2569114
20
0.3433386
40
0.2970898
50
359.1805295
51
15.0453146
0
ARC
8
DEFAULT_255_1_234
10
4.3914951
20
0.3825992
40
0.1569564
50
13.9577229
51
77.6713066
0
ARC
8
DEFAULT_255_1_234
10
4.352848
20
0.2440949
40
0.3006298
50
76.1116566
51
90.7026153
0
ARC
8
DEFAULT_255_1_234
10
4.3469318
20
0.2714545
40
0.2732568
50
89.5324876
51
103.531937
0
ARC
8
DEFAULT_255_1_234
10
4.3268762
20
0.3513884
40
0.1908508
50
103.2931773
51
133.5619022
0
ARC
8
DEFAULT_255_1_234
10
4.3224251
20
0.3573375
40
0.1834746
50
133.8349307
51
173.5344437
0
ARC
8
DEFAULT_255_1_234
10
4.3947294
20
0.3445213
40
0.2568033
50
172.5096846
51
180.1366907
0
ARC
8
DEFAULT_255_1_234
10
4.2996188
20
0.3479622
40
0.3103056
50
155.3484492
51
180.7484736
0
ARC
8
DEFAULT_255_1_234
10
4.2947277
20
0.3450846
40
0.3070957
50
131.5744599
51
154.4798489
0
ARC
8
DEFAULT_255_1_234
10
4.3260424
20
0.313431
40
0.3515643
50
96.9875458
51
131.9690667
0
ARC
8
DEFAULT_255_1_234
10
4.3479904
20
0.1888636
40
0.4779224
50
89.8596053
51
97.7825159
0
ARC
8
DEFAULT_255_1_234
10
4.3527967
20
0.1626616
40
0.5041361
50
78.3655447
51
90.4131539
0
ARC
8
DEFAULT_255_1_234
10
4.3885885
20
0.3285887
40
0.3344039
50
56.6229102
51
78.638727
0
ARC
8
DEFAULT_255_1_234
10
4.4100829
20
0.3661805
40
0.2912001
50
47.0253525
51
56.0854072
0
ARC
8
DEFAULT_255_1_234
10
4.4120609
20
0.3701223
40
0.2869704
50
10.9208013
51
46.7778124
0
ARC
8
DEFAULT_255_1_234
10
4.2756675
20
0.3385857
40
0.426899
50
359.6364486
51
11.6087304
0
ARC
8
DEFAULT_255_1_234
10
4.4591519
20
0.3370752
40
0.243409
50
332.3549906
51
359.7179418
0
ARC
8
DEFAULT_255_1_234
10
4.3941121
20
0.3679142
40
0.3153459
50
325.2333722
51
332.8745602
0
ARC
8
DEFAULT_255_1_234
10
4.4093744
20
0.3572828
40
0.2967456
50
292.9802137
51
325.2392345
0
ARC
8
DEFAULT_255_1_234
10
4.3819118
20
0.4106863
40
0.3566604
50
292.5402179
51
293.6924929
0
ARC
8
DEFAULT_255_1_234
10
4.4211714
20
-0.2347909
40
0.3307468
50
57.6435486
51
72.8625112
0
ARC
8
DEFAULT_255_1_234
10
4.4566214
20
-0.1773451
40
0.2632492
50
36.7248896
51
57.4697979
0
ARC
8
DEFAULT_255_1_234
10
4.4554847
20
-0.176078
40
0.2634081
50
8.0545065
51
36.356114
0
ARC
8
DEFAULT_255_1_234
10
4.3692032
20
-0.1915826
40
0.3510261
50
359.8320645
51
8.5869982
0
ARC
8
DEFAULT_255_1_234
10
4.3316808
20
-0.1963899
40
0.3885653
50
343.9829931
51
0.5571613
0
ARC
8
DEFAULT_255_1_234
10
4.4203005
20
-0.2206562
40
0.2966924
50
311.6359546
51
343.7651759
0
ARC
8
DEFAULT_255_1_234
10
4.3824574
20
-0.1779898
40
0.3537231
50
279.7829875
51
311.6255694
0
ARC
8
DEFAULT_255_1_234
10
4.3523351
20
-0.034272
40
0.5004971
50
269.7286406
51
280.3856417
0
ARC
8
DEFAULT_255_1_234
10
4.3461423
20
-0.0384004
40
0.4963778
50
256.6828919
51
270.4412052
0
ARC
8
DEFAULT_255_1_234
10
4.3122719
20
-0.1768606
40
0.3538406
50
229.4223008
51
256.8556159
0
ARC
8
DEFAULT_255_1_234
10
4.2708112
20
-0.2235264
40
0.2914296
50
181.818294
51
229.6455059
0
ARC
8
DEFAULT_255_1_234
10
4.3748068
20
-0.2104504
40
0.3959084
50
179.9755256
51
183.2323064
0
ARC
8
DEFAULT_255_1_234
10
4.3575814
20
-0.2124963
40
0.2293034
50
179.4465117
51
196.2869258
0
ARC
8
DEFAULT_255_1_234
10
4.3088222
20
-0.2258349
40
0.1787621
50
196.5661473
51
227.705904
0
ARC
8
DEFAULT_255_1_234
10
4.3252317
20
-0.2074845
40
0.2033784
50
227.7652068
51
257.8762805
0
ARC
8
DEFAULT_255_1_234
10
4.3477287
20
-0.1131844
40
0.3003081
50
257.4584385
51
270.426602
0
ARC
8
DEFAULT_255_1_234
10
4.3522853
20
-0.0842004
40
0.329292
50
269.5962073
51
280.8789248
0
ARC
8
DEFAULT_255_1_234
10
4.3752382
20
-0.1988315
40
0.2123908
50
280.6346389
51
299.8595945
0
ARC
8
DEFAULT_255_1_234
10
4.3943289
20
-0.2350788
40
0.171457
50
300.3576302
51
314.5517981
0
ARC
8
DEFAULT_255_1_234
10
4.3860349
20
-0.2290081
40
0.1816095
50
315.0728369
51
345.0431014
0
ARC
8
DEFAULT_255_1_234
10
4.2937163
20
-0.2021159
40
0.2777492
50
344.5986631
51
357.9269593
0
ARC
8
DEFAULT_255_1_234
10
4.2041489
20
-0.1959724
40
0.3674917
50
357.4748886
51
0.0231117
0
ARC
8
DEFAULT_255_1_234
10
4.3064599
20
-0.1935321
40
0.2651907
50
359.5047933
51
13.4239635
0
ARC
8
DEFAULT_255_1_234
10
4.3931242
20
-0.1713522
40
0.1757509
50
12.9498199
51
48.7551375
0
ARC
8
DEFAULT_255_1_234
10
4.3748976
20
-0.19626
40
0.2065134
50
49.5088623
51
72.1836453
0
ARC
8
DEFAULT_255_1_234
10
4.3391129
20
-0.3024709
40
0.3185836
50
71.9010081
51
84.3554254
0
ARC
8
DEFAULT_255_1_234
10
4.3229761
20
-0.4385674
40
0.4556151
50
84.0193428
51
89.333121
0
LINE
8
DEFAULT_255_1_234
10
18.7053628
20
0.6507211
11
18.7053628
21
-0.125948
0
LINE
8
DEFAULT_255_1_234
10
18.7053628
20
-0.125948
11
18.8676039
21
-0.125948
0
LINE
8
DEFAULT_255_1_234
10
18.8676039
20
-0.125948
11
18.8676039
21
-0.2472272
0
LINE
8
DEFAULT_255_1_234
10
18.8676039
20
-0.2472272
11
18.7053628
21
-0.2472272
0
LINE
8
DEFAULT_255_1_234
10
18.7053628
20
-0.2472272
11
18.7053628
21
-0.5187
0
LINE
8
DEFAULT_255_1_234
10
18.7053628
20
-0.5187
11
18.5559725
21
-0.5187
0
LINE
8
DEFAULT_255_1_234
10
18.5559725
20
-0.5187
11
18.5559725
21
-0.2472272
0
LINE
8
DEFAULT_255_1_234
10
18.5559725
20
-0.2472272
11
18.0234682
21
-0.2472272
0
LINE
8
DEFAULT_255_1_234
10
18.0234682
20
-0.2472272
11
18.0234682
21
-0.1596813
0
LINE
8
DEFAULT_255_1_234
10
18.0234682
20
-0.1596813
11
18.5471375
21
0.6507211
0
LINE
8
DEFAULT_255_1_234
10
18.5471375
20
0.6507211
11
18.7053628
21
0.6507211
0
LINE
8
DEFAULT_255_1_234
10
18.5383026
20
0.4153912
11
18.1921347
21
-0.125948
0
LINE
8
DEFAULT_255_1_234
10
18.1921347
20
-0.125948
11
18.5559725
21
-0.125948
0
LINE
8
DEFAULT_255_1_234
10
18.5559725
20
-0.125948
11
18.5559725
21
0.4475181
0
LINE
8
DEFAULT_255_1_234
10
18.5559725
20
0.4475181
11
18.5383026
21
0.4153912
0
ENDSEC
0
EOF