0
SECTION
2
HEADER
9
$MEASUREMENT
70
1
0
ENDSEC
0
SECTION
2
TABLES
0
TABLE
2
LTYPE
0
LTYPE
72
65
70
64
2
CONTINUOUS
3
______
73
0
40
0
0
ENDTAB
0
TABLE
2
LAYER
0
LAYER
2
DEFAULT_255_2_778
70
0
62
255
6
CONTINUOUS
0
LAYER
2
DEFAULT_255_1_234
70
0
62
255
6
CONTINUOUS
0
ENDTAB
0
ENDSEC
0
SECTION
2
ENTITIES
0
LINE
8
DEFAULT_255_2_778
10
2.7781542
20
-2.3826
11
6.0854542
21
-2.3826
0
ARC
8
DEFAULT_255_2_778
10
6.7454557
20
-2.3811557
40
0.6600157
50
89.871003
51
180.128997
0
ARC
8
DEFAULT_255_2_778
10
6.748349
20
-2.3811345
40
0.6599943
50
359.8691577
51
90.1221758
0
ARC
8
DEFAULT_255_2_778
10
6.7483705
20
-2.3840705
40
0.6599728
50
269.8759594
51
0.1240406
0
ARC
8
DEFAULT_255_2_778
10
6.7454345
20
-2.3840492
40
0.6599942
50
179.8778094
51
270.1308423
0
LINE
8
DEFAULT_255_2_778
10
6.0854417
20
-2.3826417
11
6.0854417
21
-2.3826417
0
ARC
8
DEFAULT_255_2_778
10
12.0370557
20
-2.3811557
40
0.6600157
50
89.871003
51
180.128997
0
ARC
8
DEFAULT_255_2_778
10
12.039949
20
-2.3811345
40
0.6599943
50
359.8691577
51
90.1221758
0
ARC
8
DEFAULT_255_2_778
10
12.0399705
20
-2.3840705
40
0.6599728
50
269.8759594
51
0.1240406
0
ARC
8
DEFAULT_255_2_778
10
12.0370345
20
-2.3840492
40
0.6599942
50
179.8778094
51
270.1308423
0
LINE
8
DEFAULT_255_2_778
10
11.3770417
20
-2.3826417
11
11.3770417
21
-2.3826417
0
ARC
8
DEFAULT_255_2_778
10
8.9984875
20
-7.111405
40
6.772323
50
63.3270255
51
70.9251681
0
ARC
8
DEFAULT_255_2_778
10
9.3212028
20
-6.1675678
40
5.7748463
50
70.8909106
51
81.9325437
0
ARC
8
DEFAULT_255_2_778
10
9.3913102
20
-5.7348149
40
5.3365441
50
82.0257535
51
89.9854359
0
ARC
8
DEFAULT_255_2_778
10
9.4019656
20
-5.852829
40
5.454566
50
90.0976772
51
105.0340903
0
ARC
8
DEFAULT_255_2_778
10
9.6211462
20
-6.6863884
40
6.3164498
50
104.9928929
51
113.855152
0
ARC
8
DEFAULT_255_2_778
10
9.9407508
20
-7.4424399
40
7.1371816
50
113.7470522
51
116.5833575
0
ARC
8
DEFAULT_255_2_778
10
17.2666339
20
-2.3539515
40
0.9635442
50
89.9956602
51
90.1522665
0
ARC
8
DEFAULT_255_2_778
10
17.2666807
20
-2.3799664
40
0.9895592
50
45.0025854
51
89.9984837
0
ARC
8
DEFAULT_255_2_778
10
17.2669727
20
-2.3797573
40
0.9892051
50
0.0088025
51
45.0059796
0
ARC
8
DEFAULT_255_2_778
10
17.2296258
20
-2.3795368
40
1.026552
50
359.828433
51
359.9961749
0
ARC
8
DEFAULT_255_2_778
10
17.267603
20
-2.3840433
40
0.9885713
50
318.0148844
51
0.0830319
0
ARC
8
DEFAULT_255_2_778
10
17.265225
20
-2.3852596
40
0.9895283
50
271.5200091
51
318.1593381
0
ARC
8
DEFAULT_255_2_778
10
17.2640866
20
-2.3643528
40
1.010458
50
269.9992412
51
271.5530895
0
ARC
8
DEFAULT_255_2_778
10
17.262636
20
-2.3862815
40
0.9885303
50
228.0131039
51
270.0833043
0
ARC
8
DEFAULT_255_2_778
10
17.2615465
20
-2.3837993
40
0.9896493
50
181.5303314
51
228.1561218
0
ARC
8
DEFAULT_255_2_778
10
17.2831831
20
-2.382625
40
1.0113097
50
179.9991879
51
181.564101
0
LINE
8
DEFAULT_255_2_778
10
16.2718733
20
-2.3826107
11
12.6999733
21
-2.3826107
0
ARC
8
DEFAULT_255_2_778
10
19.2521651
20
-2.3811461
40
0.9885303
50
359.9166957
51
41.9868961
0
ARC
8
DEFAULT_255_2_778
10
19.2496829
20
-2.3800566
40
0.9896493
50
41.8438782
51
88.4696686
0
ARC
8
DEFAULT_255_2_778
10
19.2485086
20
-2.4016932
40
1.0113097
50
88.435899
51
90.0008121
0
ARC
8
DEFAULT_255_2_778
10
19.247057
20
-2.3789126
40
0.9885303
50
89.9166957
51
131.9868961
0
ARC
8
DEFAULT_255_2_778
10
19.2459675
20
-2.3813947
40
0.9896493
50
131.8438782
51
178.4696686
0
ARC
8
DEFAULT_255_2_778
10
19.2676041
20
-2.382569
40
1.0113097
50
178.435899
51
180.0008121
0
ARC
8
DEFAULT_255_2_778
10
19.2204914
20
-2.385145
40
0.9642005
50
179.8477797
51
180.0043385
0
ARC
8
DEFAULT_255_2_778
10
19.2460822
20
-2.3851946
40
0.9897915
50
180.0013532
51
224.9918457
0
ARC
8
DEFAULT_255_2_778
10
19.245883
20
-2.3849954
40
0.9897916
50
225.0081543
51
269.9986468
0
ARC
8
DEFAULT_255_2_778
10
19.2459327
20
-2.4105863
40
0.9642006
50
269.9956615
51
270.1522203
0
LINE
8
DEFAULT_255_2_778
10
29.2364943
20
-2.3825834
11
25.2677943
21
-2.3825834
0
LINE
8
DEFAULT_255_2_778
10
25.2677943
20
-2.3825834
11
24.6062943
21
-3.7054834
0
LINE
8
DEFAULT_255_2_778
10
24.6062943
20
-3.7054834
11
23.2833943
21
-1.0596834
0
LINE
8
DEFAULT_255_2_778
10
23.2833943
20
-1.0596834
11
22.6218943
21
-2.3825834
0
LINE
8
DEFAULT_255_2_778
10
22.6218943
20
-2.3825834
11
20.2406943
21
-2.3825834
0
LINE
8
DEFAULT_255_1_234
10
4.4811137
20
-0.2713567
11
4.4811137
21
-1.4464
0
LINE
8
DEFAULT_255_1_234
10
4.4811137
20
-1.4464
11
4.3317234
21
-1.4464
0
LINE
8
DEFAULT_255_1_234
10
4.3317234
20
-1.4464
11
4.3317234
21
-0.4560867
0
LINE
8
DEFAULT_255_1_234
10
4.3317234
20
-0.4560867
11
4.0321396
21
-0.5661215
0
LINE
8
DEFAULT_255_1_234
10
4.0321396
20
-0.5661215
11
4.0321396
21
-0.4311883
0
LINE
8
DEFAULT_255_1_234
10
4.0321396
20
-0.4311883
11
4.4578217
21
-0.2713567
0
LINE
8
DEFAULT_255_1_234
10
4.4578217
20
-0.2713567
11
4.4811137
21
-0.2713567
0
LINE
8
DEFAULT_255_1_234
10
26.9922119
20
-1.3251208
11
26.9922119
21
-1.4464
0
LINE
8
DEFAULT_255_1_234
10
26.9922119
20
-1.4464
11
26.225984
21
-1.4464
0
LINE
8
DEFAULT_255_1_234
10
26.225984
20
-1.4464
11
26.225984
21
-1.3395779
0
LINE
8
DEFAULT_255_1_234
10
26.225984
20
-1.3395779
11
26.6307836
21
-0.8898005
0
LINE
8
DEFAULT_255_1_234
10
26.3520823
20
-0.6215405
11
26.2034952
21
-0.6215405
0
LINE
8
DEFAULT_255_1_234
10
26.7183296
20
-0.9853782
11
26.4050918
21
-1.3251208
0
LINE
8
DEFAULT_255_1_234
10
26.4050918
20
-1.3251208
11
26.9922119
21
-1.3251208
0
ARC
8
DEFAULT_255_1_234
10
25.281767
20
0.3031527
40
1.8008286
50
318.5132453
51
320.7828378
0
ARC
8
DEFAULT_255_1_234
10
25.8104644
20
-0.1271574
40
1.1191493
50
320.7372736
51
323.9737074
0
ARC
8
DEFAULT_255_1_234
10
26.2024501
20
-0.4111639
40
0.6350923
50
323.8961724
51
328.6421089
0
ARC
8
DEFAULT_255_1_234
10
26.4071096
20
-0.5373969
40
0.3946393
50
328.8299013
51
331.789948
0
ARC
8
DEFAULT_255_1_234
10
26.5068274
20
-0.5888491
40
0.2824501
50
331.4255242
51
352.9364833
0
ARC
8
DEFAULT_255_1_234
10
26.5204775
20
-0.5919024
40
0.2685315
50
353.2248685
51
0.0169286
0
ARC
8
DEFAULT_255_1_234
10
26.5414652
20
-0.589605
40
0.2475536
50
359.4866256
51
15.9339782
0
ARC
8
DEFAULT_255_1_234
10
26.5921637
20
-0.5759714
40
0.1950618
50
16.1714718
51
43.5284424
0
ARC
8
DEFAULT_255_1_234
10
26.5998946
20
-0.5682427
40
0.184134
50
43.4415429
51
83.1661404
0
ARC
8
DEFAULT_255_1_234
10
26.5864864
20
-0.6419229
40
0.258926
50
82.160215
51
90.1505798
0
ARC
8
DEFAULT_255_1_234
10
26.5833291
20
-0.6956135
40
0.3126255
50
89.5460705
51
102.5418777
0
ARC
8
DEFAULT_255_1_234
10
26.5590377
20
-0.5925335
40
0.2067346
50
102.1739365
51
129.2061916
0
ARC
8
DEFAULT_255_1_234
10
26.5511449
20
-0.5800906
40
0.1921118
50
129.7279328
51
135.7542026
0
ARC
8
DEFAULT_255_1_234
10
26.5632977
20
-0.5897955
40
0.2075944
50
136.175737
51
166.3674722
0
ARC
8
DEFAULT_255_1_234
10
26.6639896
20
-0.6167818
40
0.3118201
50
165.9092917
51
178.8683903
0
ARC
8
DEFAULT_255_1_234
10
26.7504757
20
-0.6214821
40
0.3983935
50
178.438168
51
180.0083905
0
ARC
8
DEFAULT_255_1_234
10
26.6103359
20
-0.6175769
40
0.4068601
50
163.2878735
51
180.5581814
0
ARC
8
DEFAULT_255_1_234
10
26.5301621
20
-0.595516
40
0.3237344
50
133.454115
51
162.9470031
0
ARC
8
DEFAULT_255_1_234
10
26.5480162
20
-0.6145
40
0.349795
50
100.7869394
51
133.4384016
0
ARC
8
DEFAULT_255_1_234
10
26.5827934
20
-0.7693681
40
0.5084616
50
89.6605301
51
101.3704185
0
ARC
8
DEFAULT_255_1_234
10
26.5894273
20
-0.7632504
40
0.502348
50
78.2171172
51
90.4130393
0
ARC
8
DEFAULT_255_1_234
10
26.6249351
20
-0.6008363
40
0.3361092
50
55.9268222
51
78.4888551
0
ARC
8
DEFAULT_255_1_234
10
26.6445791
20
-0.5669676
40
0.2970617
50
47.9292255
51
55.4054003
0
ARC
8
DEFAULT_255_1_234
10
26.6547352
20
-0.5566498
40
0.2825983
50
4.3347696
51
48.0560701
0
ARC
8
DEFAULT_255_1_234
10
26.5451745
20
-0.5736399
40
0.393225
50
359.925209
51
5.5967654
0
ARC
8
DEFAULT_255_1_234
10
26.5880637
20
-0.5680184
40
0.3503892
50
337.8914096
51
358.9967724
0
ARC
8
DEFAULT_255_1_234
10
26.3167049
20
-0.4633294
40
0.6412172
50
326.9135351
51
338.3505194
0
ARC
8
DEFAULT_255_1_234
10
25.9181353
20
-0.2078716
40
1.1146189
50
319.6472867
51
327.095818
0
ARC
8
DEFAULT_255_1_234
10
25.5348356
20
0.1083
40
1.6114559
50
317.2586784
51
319.9046139
0
ENDSEC
0
EOF