0
SECTION
2
HEADER
9
$MEASUREMENT
70
1
0
ENDSEC
0
SECTION
2
TABLES
0
TABLE
2
LTYPE
0
LTYPE
72
65
70
64
2
CONTINUOUS
3
______
73
0
40
0
0
ENDTAB
0
TABLE
2
LAYER
0
LAYER
2
DEFAULT_255_2_778
70
0
62
255
6
CONTINUOUS
0
LAYER
2
DEFAULT_255_1_234
70
0
62
255
6
CONTINUOUS
0
ENDTAB
0
ENDSEC
0
SECTION
2
ENTITIES
0
LINE
8
DEFAULT_255_2_778
10
7.796
20
10.4510749
11
7.796
21
6.4823749
0
LINE
8
DEFAULT_255_2_778
10
6.4731417
20
6.4823082
11
7.7960417
21
1.1906082
0
LINE
8
DEFAULT_255_2_778
10
7.7960417
20
1.1906082
11
7.7960417
21
-2.7780918
0
LINE
8
DEFAULT_255_2_778
10
8.3251333
20
7.276075
11
7.7960333
21
6.482375
0
LINE
8
DEFAULT_255_2_778
10
7.7960333
20
6.482375
11
7.2668333
21
7.276075
0
LINE
8
DEFAULT_255_1_234
10
4.2921137
20
9.3370433
11
4.2921137
21
8.162
0
LINE
8
DEFAULT_255_1_234
10
4.2921137
20
8.162
11
4.1427234
21
8.162
0
LINE
8
DEFAULT_255_1_234
10
4.1427234
20
8.162
11
4.1427234
21
9.1523133
0
LINE
8
DEFAULT_255_1_234
10
4.1427234
20
9.1523133
11
3.8431396
21
9.0422785
0
LINE
8
DEFAULT_255_1_234
10
3.8431396
20
9.0422785
11
3.8431396
21
9.1772117
0
LINE
8
DEFAULT_255_1_234
10
3.8431396
20
9.1772117
11
4.2688217
21
9.3370433
0
LINE
8
DEFAULT_255_1_234
10
4.2688217
20
9.3370433
11
4.2921137
21
9.3370433
0
LINE
8
DEFAULT_255_1_234
10
5.4824173
20
9.3314211
11
5.4824173
21
9.247891
0
LINE
8
DEFAULT_255_1_234
10
5.4824173
20
9.247891
11
4.9981035
21
8.162
0
LINE
8
DEFAULT_255_1_234
10
4.9981035
20
8.162
11
4.8422878
21
8.162
0
LINE
8
DEFAULT_255_1_234
10
4.8422878
20
8.162
11
5.3249953
21
9.2093387
0
LINE
8
DEFAULT_255_1_234
10
5.3249953
20
9.2093387
11
4.6920943
21
9.2093387
0
LINE
8
DEFAULT_255_1_234
10
4.6920943
20
9.2093387
11
4.6920943
21
9.3314211
0
LINE
8
DEFAULT_255_1_234
10
4.6920943
20
9.3314211
11
5.4824173
21
9.3314211
0
LINE
8
DEFAULT_255_1_234
10
4.2921137
20
-0.6668567
11
4.2921137
21
-1.8419
0
LINE
8
DEFAULT_255_1_234
10
4.2921137
20
-1.8419
11
4.1427234
21
-1.8419
0
LINE
8
DEFAULT_255_1_234
10
4.1427234
20
-1.8419
11
4.1427234
21
-0.8515867
0
LINE
8
DEFAULT_255_1_234
10
4.1427234
20
-0.8515867
11
3.8431396
21
-0.9616215
0
LINE
8
DEFAULT_255_1_234
10
3.8431396
20
-0.9616215
11
3.8431396
21
-0.8266883
0
LINE
8
DEFAULT_255_1_234
10
3.8431396
20
-0.8266883
11
4.2688217
21
-0.6668567
0
LINE
8
DEFAULT_255_1_234
10
4.2688217
20
-0.6668567
11
4.2921137
21
-0.6668567
0
ARC
8
DEFAULT_255_1_234
10
5.1544123
20
-0.9802297
40
0.2822356
50
338.8763615
51
0.5166041
0
ARC
8
DEFAULT_255_1_234
10
5.1712777
20
-0.9847792
40
0.2648703
50
325.8412414
51
338.4795939
0
ARC
8
DEFAULT_255_1_234
10
5.1322145
20
-0.9576958
40
0.3124019
50
296.7586019
51
325.753654
0
ARC
8
DEFAULT_255_1_234
10
5.1034253
20
-0.9092211
40
0.368668
50
296.0902311
51
297.3618122
0
ARC
8
DEFAULT_255_1_234
10
5.1291711
20
-1.5646959
40
0.3518806
50
47.9009248
51
67.1946869
0
ARC
8
DEFAULT_255_1_234
10
5.1487953
20
-1.5400605
40
0.320451
50
35.236241
51
47.551371
0
ARC
8
DEFAULT_255_1_234
10
5.1749571
20
-1.5226007
40
0.2890103
50
359.2759738
51
35.4014081
0
ARC
8
DEFAULT_255_1_234
10
5.1004602
20
-1.5299174
40
0.3635026
50
343.1294516
51
0.5776525
0
ARC
8
DEFAULT_255_1_234
10
5.1729147
20
-1.549867
40
0.2883832
50
310.8497458
51
342.744803
0
ARC
8
DEFAULT_255_1_234
10
5.131126
20
-1.5021706
40
0.3517954
50
281.5473923
51
310.9169905
0
ARC
8
DEFAULT_255_1_234
10
5.095471
20
-1.3468916
40
0.5110832
50
269.6192722
51
281.9789957
0
ARC
8
DEFAULT_255_1_234
10
5.0882499
20
-1.3468172
40
0.5111606
50
257.4584469
51
270.4287458
0
ARC
8
DEFAULT_255_1_234
10
5.0501642
20
-1.5071656
40
0.3463762
50
228.7553743
51
257.8484423
0
ARC
8
DEFAULT_255_1_234
10
5.019184
20
-1.5444558
40
0.297916
50
184.0104442
51
228.5071787
0
ARC
8
DEFAULT_255_1_234
10
5.1354784
20
-1.5267488
40
0.4152734
50
179.9315461
51
185.3254504
0
ARC
8
DEFAULT_255_1_234
10
5.017843
20
-1.5230008
40
0.2976554
50
145.6795913
51
180.6259649
0
ARC
8
DEFAULT_255_1_234
10
5.0341779
20
-1.5344071
40
0.3175776
50
115.5537925
51
145.6416199
0
ARC
8
DEFAULT_255_1_234
10
5.0682709
20
-1.5954972
40
0.3874232
50
113.2437915
51
116.2054627
0
ARC
8
DEFAULT_255_1_234
10
5.0529922
20
-0.955642
40
0.3154751
50
222.9548379
51
244.1372485
0
ARC
8
DEFAULT_255_1_234
10
5.0407997
20
-0.9693166
40
0.2972382
50
213.3439227
51
222.6271327
0
ARC
8
DEFAULT_255_1_234
10
5.0215932
20
-0.9823692
40
0.274019
50
180.4316517
51
213.2713999
0
ARC
8
DEFAULT_255_1_234
10
5.0790933
20
-0.977689
40
0.33158
50
179.9992944
51
181.1655061
0
ARC
8
DEFAULT_255_1_234
10
5.120035
20
-0.9742439
40
0.3725376
50
164.6186108
51
180.5292368
0
ARC
8
DEFAULT_255_1_234
10
5.0302213
20
-0.9500899
40
0.2795349
50
132.2454369
51
164.5092287
0
ARC
8
DEFAULT_255_1_234
10
5.0589317
20
-0.9825972
40
0.3229019
50
100.7052766
51
132.1387266
0
ARC
8
DEFAULT_255_1_234
10
5.0894289
20
-1.1203914
40
0.4639835
50
89.6732617
51
101.2449487
0
ARC
8
DEFAULT_255_1_234
10
5.0956487
20
-1.102901
40
0.4464999
50
76.2876631
51
90.4586123
0
ARC
8
DEFAULT_255_1_234
10
5.1262719
20
-0.980678
40
0.3205023
50
47.8240157
51
76.4266918
0
ARC
8
DEFAULT_255_1_234
10
5.1485269
20
-0.954641
40
0.2862661
50
6.9168658
51
47.6261438
0
ARC
8
DEFAULT_255_1_234
10
5.0298672
20
-0.976563
40
0.4067708
50
359.8419705
51
7.9694496
0
ARC
8
DEFAULT_255_1_234
10
5.0640569
20
-1.5206075
40
0.2513121
50
359.4454068
51
16.9256425
0
ARC
8
DEFAULT_255_1_234
10
5.110938
20
-1.5076967
40
0.2027071
50
17.292259
51
45.462717
0
ARC
8
DEFAULT_255_1_234
10
5.1055316
20
-1.5123566
40
0.2098212
50
45.3028762
51
83.1921472
0
ARC
8
DEFAULT_255_1_234
10
5.0912
20
-1.5925105
40
0.2911472
50
82.2614531
51
90.143954
0
ARC
8
DEFAULT_255_1_234
10
5.088112
20
-1.569205
40
0.2678513
50
89.4959189
51
104.8579811
0
ARC
8
DEFAULT_255_1_234
10
5.0704379
20
-1.502211
40
0.1985654
50
104.8855873
51
135.2448349
0
ARC
8
DEFAULT_255_1_234
10
5.0754152
20
-1.5066664
40
0.2052373
50
135.3398955
51
172.104394
0
ARC
8
DEFAULT_255_1_234
10
5.156121
20
-1.5221075
40
0.2873299
50
171.2651929
51
180.1859362
0
ARC
8
DEFAULT_255_1_234
10
5.1391911
20
-1.5253267
40
0.2704083
50
179.515471
51
193.6466734
0
ARC
8
DEFAULT_255_1_234
10
5.057568
20
-1.5461223
40
0.1861855
50
193.3540587
51
225.8256931
0
ARC
8
DEFAULT_255_1_234
10
5.0616437
20
-1.5390476
40
0.1941102
50
226.418029
51
255.8553723
0
ARC
8
DEFAULT_255_1_234
10
5.087287
20
-1.4454002
40
0.2911917
50
255.4655572
51
268.7985967
0
ARC
8
DEFAULT_255_1_234
10
5.0920062
20
-1.3615509
40
0.3751331
50
268.3464808
51
270.0104874
0
ARC
8
DEFAULT_255_1_234
10
5.094345
20
-1.4299862
40
0.3067064
50
269.575914
51
282.0823146
0
ARC
8
DEFAULT_255_1_234
10
5.1168359
20
-1.5294197
40
0.2047712
50
281.7522535
51
306.6056425
0
ARC
8
DEFAULT_255_1_234
10
5.1266785
20
-1.5455513
40
0.1859604
50
307.1350025
51
314.0277951
0
ARC
8
DEFAULT_255_1_234
10
5.1230869
20
-1.5429234
40
0.1903475
50
314.2553419
51
350.169324
0
ARC
8
DEFAULT_255_1_234
10
5.0379338
20
-1.5244591
40
0.2774269
50
349.4145679
51
0.2930737
0
ARC
8
DEFAULT_255_1_234
10
5.0899771
20
-1.0085647
40
0.2300764
50
89.477591
51
105.729794
0
ARC
8
DEFAULT_255_1_234
10
5.0763684
20
-0.9580363
40
0.1777519
50
105.922966
51
135.1662921
0
ARC
8
DEFAULT_255_1_234
10
5.0784187
20
-0.9594581
40
0.1802087
50
135.3053131
51
168.9882338
0
ARC
8
DEFAULT_255_1_234
10
5.1611759
20
-0.9784279
40
0.2650806
50
168.3802067
51
180.3602358
0
ARC
8
DEFAULT_255_1_234
10
5.1383339
20
-0.9821959
40
0.2422425
50
179.5029707
51
194.9126783
0
ARC
8
DEFAULT_255_1_234
10
5.0798
20
-0.997589
40
0.1817188
50
194.9722181
51
224.1943972
0
ARC
8
DEFAULT_255_1_234
10
5.0769867
20
-0.9998831
40
0.1781027
50
224.2961434
51
262.0157375
0
ARC
8
DEFAULT_255_1_234
10
5.091211
20
-0.9267339
40
0.2525492
50
261.1250369
51
270.1959853
0
ARC
8
DEFAULT_255_1_234
10
5.0941865
20
-0.9454661
40
0.233825
50
269.4825617
51
285.0988277
0
ARC
8
DEFAULT_255_1_234
10
5.1096024
20
-1.003301
40
0.1739712
50
285.1585659
51
315.9484648
0
ARC
8
DEFAULT_255_1_234
10
5.1007036
20
-0.9951114
40
0.1860616
50
316.0412958
51
351.9162715
0
ARC
8
DEFAULT_255_1_234
10
5.0273991
20
-0.9809755
40
0.2606517
50
351.1056823
51
0.1936567
0
ARC
8
DEFAULT_255_1_234
10
5.053682
20
-0.9779631
40
0.234377
50
359.4789506
51
16.0679113
0
ARC
8
DEFAULT_255_1_234
10
5.1012779
20
-0.965119
40
0.1850875
50
16.3251951
51
44.791304
0
ARC
8
DEFAULT_255_1_234
10
5.099506
20
-0.9650661
40
0.186312
50
44.3958661
51
88.2498933
0
ARC
8
DEFAULT_255_1_234
10
5.0921614
20
-1.0261846
40
0.2476868
50
86.9833827
51
90.0200148
0
ENDSEC
0
EOF