0
SECTION
2
HEADER
9
$MEASUREMENT
70
1
0
ENDSEC
0
SECTION
2
TABLES
0
TABLE
2
LTYPE
0
LTYPE
72
65
70
64
2
CONTINUOUS
3
______
73
0
40
0
0
ENDTAB
0
TABLE
2
LAYER
0
LAYER
2
DEFAULT_255_2_778
70
0
62
255
6
CONTINUOUS
0
LAYER
2
DEFAULT_255_1_234
70
0
62
255
6
CONTINUOUS
0
ENDTAB
0
ENDSEC
0
SECTION
2
ENTITIES
0
LINE
8
DEFAULT_255_2_778
10
8.0606125
20
7.0114915
11
8.7221125
21
6.4822915
0
LINE
8
DEFAULT_255_2_778
10
8.7221125
20
6.4822915
11
6.7377125
21
1.1906915
0
LINE
8
DEFAULT_255_2_778
10
6.7377125
20
1.1906915
11
6.7377125
21
-2.7781085
0
LINE
8
DEFAULT_255_2_778
10
6.7376834
20
10.4511041
11
6.7376834
21
5.8209041
0
LINE
8
DEFAULT_255_2_778
10
6.7376834
20
5.8209041
11
9.3834834
21
5.8209041
0
LINE
8
DEFAULT_255_1_234
10
3.2338137
20
9.3370433
11
3.2338137
21
8.162
0
LINE
8
DEFAULT_255_1_234
10
3.2338137
20
8.162
11
3.0844234
21
8.162
0
LINE
8
DEFAULT_255_1_234
10
3.0844234
20
8.162
11
3.0844234
21
9.1523133
0
LINE
8
DEFAULT_255_1_234
10
3.0844234
20
9.1523133
11
2.7848396
21
9.0422785
0
LINE
8
DEFAULT_255_1_234
10
2.7848396
20
9.0422785
11
2.7848396
21
9.1772117
0
LINE
8
DEFAULT_255_1_234
10
2.7848396
20
9.1772117
11
3.2105217
21
9.3370433
0
LINE
8
DEFAULT_255_1_234
10
3.2105217
20
9.3370433
11
3.2338137
21
9.3370433
0
LINE
8
DEFAULT_255_1_234
10
3.8562734
20
8.7177963
11
3.7374037
21
8.7483169
0
LINE
8
DEFAULT_255_1_234
10
3.7374037
20
8.7483169
11
3.7968386
21
9.3314211
0
LINE
8
DEFAULT_255_1_234
10
3.7968386
20
9.3314211
11
4.3960063
21
9.3314211
0
LINE
8
DEFAULT_255_1_234
10
4.3960063
20
9.3314211
11
4.3960063
21
9.1940784
0
LINE
8
DEFAULT_255_1_234
10
4.3960063
20
9.1940784
11
3.9229369
21
9.1940784
0
LINE
8
DEFAULT_255_1_234
10
3.9229369
20
9.1940784
11
3.8875972
21
8.8752184
0
LINE
8
DEFAULT_255_1_234
10
3.6956387
20
8.4696156
11
3.8361941
21
8.4696156
0
LINE
8
DEFAULT_255_1_234
10
3.895629
20
8.7499232
11
3.8562734
21
8.7177963
0
ARC
8
DEFAULT_255_1_234
10
4.0730756
20
8.557223
40
0.3681349
50
93.7182161
51
120.2538958
0
ARC
8
DEFAULT_255_1_234
10
4.0825019
20
8.4764394
40
0.449379
50
89.9660152
51
94.2496022
0
ARC
8
DEFAULT_255_1_234
10
4.0865753
20
8.5353549
40
0.390482
50
73.8043271
51
90.5585896
0
ARC
8
DEFAULT_255_1_234
10
4.110065
20
8.6211602
40
0.3015334
50
41.3071453
51
73.5430202
0
ARC
8
DEFAULT_255_1_234
10
4.0684477
20
8.5853324
40
0.3564457
50
13.5075983
51
41.2174222
0
ARC
8
DEFAULT_255_1_234
10
3.9042681
20
8.5423486
40
0.5261351
50
1.1331335
51
13.8829381
0
ARC
8
DEFAULT_255_1_234
10
3.763105
20
8.5347665
40
0.6674378
50
359.9919444
51
1.544251
0
ARC
8
DEFAULT_255_1_234
10
3.8907876
20
8.530628
40
0.5397702
50
347.8572367
51
0.4293338
0
ARC
8
DEFAULT_255_1_234
10
4.0658194
20
8.4909736
40
0.3603188
50
323.673004
51
348.1672506
0
ARC
8
DEFAULT_255_1_234
10
4.0952702
20
8.4730168
40
0.3259678
50
316.8171152
51
323.1492751
0
ARC
8
DEFAULT_255_1_234
10
4.1013891
20
8.469346
40
0.3189975
50
281.8396411
51
316.5457803
0
ARC
8
DEFAULT_255_1_234
10
4.0638155
20
8.6248762
40
0.4789527
50
269.5770101
51
282.4214771
0
ARC
8
DEFAULT_255_1_234
10
4.0566966
20
8.6035125
40
0.45759
50
256.2427136
51
270.4486331
0
ARC
8
DEFAULT_255_1_234
10
4.0267869
20
8.4835229
40
0.3339303
50
228.9023911
51
256.3314342
0
ARC
8
DEFAULT_255_1_234
10
4.0194101
20
8.4718746
40
0.32031
50
193.753695
51
228.5271154
0
ARC
8
DEFAULT_255_1_234
10
4.1432055
20
8.50818
40
0.4492253
50
184.924711
51
194.497588
0
ARC
8
DEFAULT_255_1_234
10
4.1624622
20
8.5117591
40
0.3289787
50
187.3600538
51
198.6732863
0
ARC
8
DEFAULT_255_1_234
10
4.0574916
20
8.4753674
40
0.217884
50
198.4451669
51
217.794479
0
ARC
8
DEFAULT_255_1_234
10
4.0279091
20
8.4544085
40
0.1816698
50
218.2887171
51
228.5612368
0
ARC
8
DEFAULT_255_1_234
10
4.0376878
20
8.4675963
40
0.1980329
50
228.9654866
51
258.1234728
0
ARC
8
DEFAULT_255_1_234
10
4.0582588
20
8.5556833
40
0.2884748
50
257.7258293
51
270.401361
0
ARC
8
DEFAULT_255_1_234
10
4.0627474
20
8.5111821
40
0.2439788
50
269.4204404
51
286.4209037
0
ARC
8
DEFAULT_255_1_234
10
4.0775962
20
8.4572657
40
0.1880666
50
286.7251356
51
320.600362
0
ARC
8
DEFAULT_255_1_234
10
4.0392787
20
8.4883595
40
0.2374121
50
320.6712579
51
344.5441685
0
ARC
8
DEFAULT_255_1_234
10
3.9236113
20
8.5223045
40
0.3579479
50
344.2412205
51
356.7357071
0
ARC
8
DEFAULT_255_1_234
10
3.7987262
20
8.5326444
40
0.4832297
50
356.3548756
51
0.0500261
0
ARC
8
DEFAULT_255_1_234
10
3.9323771
20
8.535765
40
0.3495889
50
359.5576869
51
12.953486
0
ARC
8
DEFAULT_255_1_234
10
4.0378668
20
8.5613434
40
0.2410532
50
12.6490276
51
41.6081334
0
ARC
8
DEFAULT_255_1_234
10
4.0609039
20
8.5809321
40
0.2108218
50
41.7850273
51
85.9892764
0
ARC
8
DEFAULT_255_1_234
10
4.0485776
20
8.4996462
40
0.2928454
50
84.6957577
51
90.0676183
0
ARC
8
DEFAULT_255_1_234
10
4.046226
20
8.4327716
40
0.3597255
50
89.6804936
51
99.1614436
0
ARC
8
DEFAULT_255_1_234
10
4.0256891
20
8.5555131
40
0.235281
50
98.9830931
51
113.8908934
0
ARC
8
DEFAULT_255_1_234
10
4.0027301
20
8.6096587
40
0.176479
50
114.1950727
51
127.3641004
0
LINE
8
DEFAULT_255_1_234
10
3.2338137
20
-0.6668567
11
3.2338137
21
-1.8419
0
LINE
8
DEFAULT_255_1_234
10
3.2338137
20
-1.8419
11
3.0844234
21
-1.8419
0
LINE
8
DEFAULT_255_1_234
10
3.0844234
20
-1.8419
11
3.0844234
21
-0.8515867
0
LINE
8
DEFAULT_255_1_234
10
3.0844234
20
-0.8515867
11
2.7848396
21
-0.9616215
0
LINE
8
DEFAULT_255_1_234
10
2.7848396
20
-0.9616215
11
2.7848396
21
-0.8266883
0
LINE
8
DEFAULT_255_1_234
10
2.7848396
20
-0.8266883
11
3.2105217
21
-0.6668567
0
LINE
8
DEFAULT_255_1_234
10
3.2105217
20
-0.6668567
11
3.2338137
21
-0.6668567
0
LINE
8
DEFAULT_255_1_234
10
4.2257334
20
-0.6716757
11
4.2522381
21
-0.6716757
0
LINE
8
DEFAULT_255_1_234
10
4.2522381
20
-0.6716757
11
4.2522381
21
-0.797774
0
LINE
8
DEFAULT_255_1_234
10
4.2522381
20
-0.797774
11
4.2249302
21
-0.797774
0
LINE
8
DEFAULT_255_1_234
10
3.6779688
20
-1.3969417
11
3.6779688
21
-1.3399164
0
LINE
8
DEFAULT_255_1_234
10
3.8273592
20
-1.3591925
11
3.8273592
21
-1.4138083
0
ARC
8
DEFAULT_255_1_234
10
4.230165
20
-1.2975545
40
0.4998079
50
90.6001036
51
104.514704
0
ARC
8
DEFAULT_255_1_234
10
4.1913166
20
-1.1530869
40
0.3502176
50
104.2855254
51
133.862935
0
ARC
8
DEFAULT_255_1_234
10
4.2076923
20
-1.163917
40
0.3693984
50
134.5302688
51
161.6210873
0
ARC
8
DEFAULT_255_1_234
10
4.3730112
20
-1.2222105
40
0.5446739
50
161.2849839
51
174.2076652
0
ARC
8
DEFAULT_255_1_234
10
4.5137049
20
-1.2416213
40
0.6866274
50
173.7810589
51
174.9254635
0
ARC
8
DEFAULT_255_1_234
10
4.0586881
20
-1.3799161
40
0.3033419
50
95.8330959
51
138.9954921
0
ARC
8
DEFAULT_255_1_234
10
4.0810237
20
-1.5077625
40
0.4328947
50
89.8753725
51
97.0544009
0
ARC
8
DEFAULT_255_1_234
10
4.0857703
20
-1.4242252
40
0.3493769
50
71.6407809
51
90.6240094
0
ARC
8
DEFAULT_255_1_234
10
4.1008276
20
-1.3687918
40
0.2920396
50
39.6367836
51
71.019018
0
ARC
8
DEFAULT_255_1_234
10
4.0371749
20
-1.4238002
40
0.3761538
50
10.658731
51
39.9043955
0
ARC
8
DEFAULT_255_1_234
10
3.8823832
20
-1.4574314
40
0.5345136
50
359.682601
51
11.132623
0
ARC
8
DEFAULT_255_1_234
10
3.8783963
20
-1.464499
40
0.5385081
50
347.2486944
51
0.4369317
0
ARC
8
DEFAULT_255_1_234
10
4.045144
20
-1.5046193
40
0.3670249
50
318.1409698
51
347.6118597
0
ARC
8
DEFAULT_255_1_234
10
4.0776433
20
-1.5313298
40
0.3250007
50
275.6342139
51
317.8248465
0
ARC
8
DEFAULT_255_1_234
10
4.0555544
20
-1.4013781
40
0.4565864
50
269.8874292
51
276.7917694
0
ARC
8
DEFAULT_255_1_234
10
4.0500615
20
-1.5039257
40
0.3540676
50
246.9140195
51
270.7437342
0
ARC
8
DEFAULT_255_1_234
10
4.0507005
20
-1.5181616
40
0.3412781
50
218.1665114
51
245.878116
0
ARC
8
DEFAULT_255_1_234
10
4.1386466
20
-1.4445721
40
0.455911
50
191.4115814
51
218.6077802
0
ARC
8
DEFAULT_255_1_234
10
4.3324555
20
-1.4011167
40
0.6545001
50
179.6345085
51
191.7836486
0
ARC
8
DEFAULT_255_1_234
10
4.8906892
20
-1.3332303
40
1.2127388
50
171.4525249
51
180.3158839
0
ARC
8
DEFAULT_255_1_234
10
4.4511768
20
-1.2648392
40
0.7679464
50
157.9802646
51
171.6246686
0
ARC
8
DEFAULT_255_1_234
10
4.2297789
20
-1.1765579
40
0.5296008
50
141.4298019
51
157.854097
0
ARC
8
DEFAULT_255_1_234
10
4.1656109
20
-1.1311619
40
0.4511509
50
102.8715806
51
140.8564722
0
ARC
8
DEFAULT_255_1_234
10
4.2303725
20
-1.3751448
40
0.7034845
50
90.3778349
51
103.5869322
0
ARC
8
DEFAULT_255_1_234
10
4.0565501
20
-1.435627
40
0.2370698
50
89.8751008
51
126.2071704
0
ARC
8
DEFAULT_255_1_234
10
4.0611291
20
-1.4510697
40
0.2522934
50
124.9745049
51
144.895901
0
ARC
8
DEFAULT_255_1_234
10
4.0435481
20
-1.436744
40
0.2296779
50
145.2974905
51
160.2660252
0
ARC
8
DEFAULT_255_1_234
10
4.350802
20
-1.4169929
40
0.5234525
50
179.6514266
51
190.2855912
0
ARC
8
DEFAULT_255_1_234
10
4.1814157
20
-1.4489214
40
0.3510893
50
190.0945431
51
207.5098196
0
ARC
8
DEFAULT_255_1_234
10
4.1248427
20
-1.4758377
40
0.288489
50
207.9583163
51
216.3251085
0
ARC
8
DEFAULT_255_1_234
10
4.0908535
20
-1.5037895
40
0.2445587
50
215.7661442
51
232.5456785
0
ARC
8
DEFAULT_255_1_234
10
4.0525518
20
-1.5524518
40
0.1826382
50
232.8005391
51
270.6605633
0
ARC
8
DEFAULT_255_1_234
10
4.0571219
20
-1.5160388
40
0.2190529
50
269.35537
51
288.4744281
0
ARC
8
DEFAULT_255_1_234
10
4.0664116
20
-1.5509882
40
0.1829749
50
289.1833337
51
322.9683818
0
ARC
8
DEFAULT_255_1_234
10
4.0052638
20
-1.5027609
40
0.2608399
50
322.6007884
51
346.5182367
0
ARC
8
DEFAULT_255_1_234
10
3.8895234
20
-1.4732384
40
0.3802777
50
346.2582162
51
358.7741648
0
ARC
8
DEFAULT_255_1_234
10
3.7876903
20
-1.4677035
40
0.4822176
50
358.3755224
51
0.0098023
0
ARC
8
DEFAULT_255_1_234
10
3.863309
20
-1.4649343
40
0.4066078
50
359.6214041
51
11.2839074
0
ARC
8
DEFAULT_255_1_234
10
3.9910237
20
-1.4382934
40
0.2761514
50
11.0482309
51
31.8146458
0
ARC
8
DEFAULT_255_1_234
10
4.021928
20
-1.4215416
40
0.2410679
50
32.3035391
51
38.082671
0
ARC
8
DEFAULT_255_1_234
10
4.063994
20
-1.3834338
40
0.1844966
50
36.825067
51
85.7415724
0
ARC
8
DEFAULT_255_1_234
10
4.0572773
20
-1.4334699
40
0.2349122
50
85.0140713
51
90.0513278
0
ENDSEC
0
EOF