0
SECTION
2
HEADER
9
$MEASUREMENT
70
1
0
ENDSEC
0
SECTION
2
TABLES
0
TABLE
2
LTYPE
0
LTYPE
72
65
70
64
2
CONTINUOUS
3
______
73
0
40
0
0
ENDTAB
0
TABLE
2
LAYER
0
LAYER
2
DEFAULT_255_2_778
70
0
62
255
6
CONTINUOUS
0
LAYER
2
DEFAULT_255_1_234
70
0
62
255
6
CONTINUOUS
0
ENDTAB
0
ENDSEC
0
SECTION
2
ENTITIES
0
LINE
8
DEFAULT_255_2_778
10
13.35225
20
-2.7780251
11
13.35225
21
1.1906749
0
LINE
8
DEFAULT_255_2_778
10
13.35225
20
1.1906749
11
11.76475
21
1.1906749
0
LINE
8
DEFAULT_255_2_778
10
8.0606
20
-2.7780251
11
8.0606
21
1.1906749
0
LINE
8
DEFAULT_255_2_778
10
13.3522417
20
10.4510749
11
13.3522417
21
6.4823749
0
LINE
8
DEFAULT_255_2_778
10
13.3522417
20
6.4823749
11
12.0293417
21
0.1323749
0
LINE
8
DEFAULT_255_1_234
10
9.8484137
20
9.3370433
11
9.8484137
21
8.162
0
LINE
8
DEFAULT_255_1_234
10
9.8484137
20
8.162
11
9.6990234
21
8.162
0
LINE
8
DEFAULT_255_1_234
10
9.6990234
20
8.162
11
9.6990234
21
9.1523133
0
LINE
8
DEFAULT_255_1_234
10
9.6990234
20
9.1523133
11
9.3994396
21
9.0422785
0
LINE
8
DEFAULT_255_1_234
10
9.3994396
20
9.0422785
11
9.3994396
21
9.1772117
0
LINE
8
DEFAULT_255_1_234
10
9.3994396
20
9.1772117
11
9.8251217
21
9.3370433
0
LINE
8
DEFAULT_255_1_234
10
9.8251217
20
9.3370433
11
9.8484137
21
9.3370433
0
LINE
8
DEFAULT_255_1_234
10
10.4708734
20
8.7177963
11
10.3520037
21
8.7483169
0
LINE
8
DEFAULT_255_1_234
10
10.3520037
20
8.7483169
11
10.4114386
21
9.3314211
0
LINE
8
DEFAULT_255_1_234
10
10.4114386
20
9.3314211
11
11.0106062
21
9.3314211
0
LINE
8
DEFAULT_255_1_234
10
11.0106062
20
9.3314211
11
11.0106062
21
9.1940784
0
LINE
8
DEFAULT_255_1_234
10
11.0106062
20
9.1940784
11
10.5375369
21
9.1940784
0
LINE
8
DEFAULT_255_1_234
10
10.5375369
20
9.1940784
11
10.5021972
21
8.8752184
0
LINE
8
DEFAULT_255_1_234
10
10.3102387
20
8.4696156
11
10.4507941
21
8.4696156
0
LINE
8
DEFAULT_255_1_234
10
10.510229
20
8.7499232
11
10.4708734
21
8.7177963
0
ARC
8
DEFAULT_255_1_234
10
10.6876756
20
8.557223
40
0.3681349
50
93.7182161
51
120.2538958
0
ARC
8
DEFAULT_255_1_234
10
10.6971019
20
8.4764394
40
0.449379
50
89.9660152
51
94.2496022
0
ARC
8
DEFAULT_255_1_234
10
10.7011753
20
8.5353549
40
0.390482
50
73.8043271
51
90.5585896
0
ARC
8
DEFAULT_255_1_234
10
10.724665
20
8.6211602
40
0.3015334
50
41.3071453
51
73.5430202
0
ARC
8
DEFAULT_255_1_234
10
10.6830477
20
8.5853324
40
0.3564457
50
13.5075983
51
41.2174222
0
ARC
8
DEFAULT_255_1_234
10
10.5188681
20
8.5423486
40
0.5261351
50
1.1331335
51
13.8829381
0
ARC
8
DEFAULT_255_1_234
10
10.377705
20
8.5347665
40
0.6674378
50
359.9919444
51
1.544251
0
ARC
8
DEFAULT_255_1_234
10
10.5053876
20
8.530628
40
0.5397702
50
347.8572367
51
0.4293338
0
ARC
8
DEFAULT_255_1_234
10
10.6804194
20
8.4909736
40
0.3603188
50
323.673004
51
348.1672506
0
ARC
8
DEFAULT_255_1_234
10
10.7098702
20
8.4730168
40
0.3259678
50
316.8171152
51
323.1492751
0
ARC
8
DEFAULT_255_1_234
10
10.7159891
20
8.469346
40
0.3189975
50
281.8396411
51
316.5457803
0
ARC
8
DEFAULT_255_1_234
10
10.6784155
20
8.6248762
40
0.4789527
50
269.5770101
51
282.4214771
0
ARC
8
DEFAULT_255_1_234
10
10.6712966
20
8.6035125
40
0.45759
50
256.2427136
51
270.4486331
0
ARC
8
DEFAULT_255_1_234
10
10.6413869
20
8.4835229
40
0.3339303
50
228.9023911
51
256.3314342
0
ARC
8
DEFAULT_255_1_234
10
10.6340101
20
8.4718746
40
0.32031
50
193.753695
51
228.5271154
0
ARC
8
DEFAULT_255_1_234
10
10.7578055
20
8.50818
40
0.4492253
50
184.924711
51
194.497588
0
ARC
8
DEFAULT_255_1_234
10
10.7770622
20
8.5117591
40
0.3289787
50
187.3600538
51
198.6732863
0
ARC
8
DEFAULT_255_1_234
10
10.6720916
20
8.4753674
40
0.217884
50
198.4451669
51
217.794479
0
ARC
8
DEFAULT_255_1_234
10
10.6425091
20
8.4544085
40
0.1816698
50
218.2887171
51
228.5612368
0
ARC
8
DEFAULT_255_1_234
10
10.6522878
20
8.4675963
40
0.1980329
50
228.9654866
51
258.1234728
0
ARC
8
DEFAULT_255_1_234
10
10.6728588
20
8.5556833
40
0.2884748
50
257.7258293
51
270.401361
0
ARC
8
DEFAULT_255_1_234
10
10.6773474
20
8.5111821
40
0.2439788
50
269.4204404
51
286.4209037
0
ARC
8
DEFAULT_255_1_234
10
10.6921962
20
8.4572657
40
0.1880666
50
286.7251356
51
320.600362
0
ARC
8
DEFAULT_255_1_234
10
10.6538787
20
8.4883595
40
0.2374121
50
320.6712579
51
344.5441685
0
ARC
8
DEFAULT_255_1_234
10
10.5382113
20
8.5223045
40
0.3579479
50
344.2412205
51
356.7357071
0
ARC
8
DEFAULT_255_1_234
10
10.4133262
20
8.5326444
40
0.4832297
50
356.3548756
51
0.0500261
0
ARC
8
DEFAULT_255_1_234
10
10.5469771
20
8.535765
40
0.3495889
50
359.5576869
51
12.953486
0
ARC
8
DEFAULT_255_1_234
10
10.6524668
20
8.5613434
40
0.2410532
50
12.6490276
51
41.6081334
0
ARC
8
DEFAULT_255_1_234
10
10.6755039
20
8.5809321
40
0.2108218
50
41.7850273
51
85.9892764
0
ARC
8
DEFAULT_255_1_234
10
10.6631776
20
8.4996462
40
0.2928454
50
84.6957577
51
90.0676183
0
ARC
8
DEFAULT_255_1_234
10
10.660826
20
8.4327716
40
0.3597255
50
89.6804936
51
99.1614436
0
ARC
8
DEFAULT_255_1_234
10
10.6402891
20
8.5555131
40
0.235281
50
98.9830931
51
113.8908934
0
ARC
8
DEFAULT_255_1_234
10
10.6173301
20
8.6096587
40
0.176479
50
114.1950727
51
127.3641004
0
LINE
8
DEFAULT_255_1_234
10
4.5567137
20
-1.2462567
11
4.5567137
21
-2.4213
0
LINE
8
DEFAULT_255_1_234
10
4.5567137
20
-2.4213
11
4.4073234
21
-2.4213
0
LINE
8
DEFAULT_255_1_234
10
4.4073234
20
-2.4213
11
4.4073234
21
-1.4309867
0
LINE
8
DEFAULT_255_1_234
10
4.4073234
20
-1.4309867
11
4.1077396
21
-1.5410215
0
LINE
8
DEFAULT_255_1_234
10
4.1077396
20
-1.5410215
11
4.1077396
21
-1.4060883
0
LINE
8
DEFAULT_255_1_234
10
4.1077396
20
-1.4060883
11
4.5334217
21
-1.2462567
0
LINE
8
DEFAULT_255_1_234
10
4.5334217
20
-1.2462567
11
4.5567137
21
-1.2462567
0
ARC
8
DEFAULT_255_1_234
10
5.4190123
20
-1.5596297
40
0.2822356
50
338.8763615
51
0.5166041
0
ARC
8
DEFAULT_255_1_234
10
5.4358777
20
-1.5641792
40
0.2648703
50
325.8412414
51
338.4795939
0
ARC
8
DEFAULT_255_1_234
10
5.3968145
20
-1.5370958
40
0.3124019
50
296.7586019
51
325.753654
0
ARC
8
DEFAULT_255_1_234
10
5.3680253
20
-1.4886211
40
0.368668
50
296.0902311
51
297.3618122
0
ARC
8
DEFAULT_255_1_234
10
5.3937711
20
-2.1440959
40
0.3518806
50
47.9009248
51
67.1946869
0
ARC
8
DEFAULT_255_1_234
10
5.4133953
20
-2.1194605
40
0.320451
50
35.236241
51
47.551371
0
ARC
8
DEFAULT_255_1_234
10
5.4395571
20
-2.1020007
40
0.2890103
50
359.2759738
51
35.4014081
0
ARC
8
DEFAULT_255_1_234
10
5.3650602
20
-2.1093174
40
0.3635026
50
343.1294516
51
0.5776525
0
ARC
8
DEFAULT_255_1_234
10
5.4375147
20
-2.129267
40
0.2883832
50
310.8497458
51
342.744803
0
ARC
8
DEFAULT_255_1_234
10
5.395726
20
-2.0815706
40
0.3517954
50
281.5473923
51
310.9169905
0
ARC
8
DEFAULT_255_1_234
10
5.360071
20
-1.9262916
40
0.5110832
50
269.6192722
51
281.9789957
0
ARC
8
DEFAULT_255_1_234
10
5.3528499
20
-1.9262172
40
0.5111606
50
257.4584469
51
270.4287458
0
ARC
8
DEFAULT_255_1_234
10
5.3147642
20
-2.0865656
40
0.3463762
50
228.7553743
51
257.8484423
0
ARC
8
DEFAULT_255_1_234
10
5.283784
20
-2.1238558
40
0.297916
50
184.0104442
51
228.5071787
0
ARC
8
DEFAULT_255_1_234
10
5.4000784
20
-2.1061488
40
0.4152734
50
179.9315461
51
185.3254504
0
ARC
8
DEFAULT_255_1_234
10
5.282443
20
-2.1024008
40
0.2976554
50
145.6795913
51
180.6259649
0
ARC
8
DEFAULT_255_1_234
10
5.2987779
20
-2.1138071
40
0.3175776
50
115.5537925
51
145.6416199
0
ARC
8
DEFAULT_255_1_234
10
5.3328709
20
-2.1748972
40
0.3874232
50
113.2437915
51
116.2054627
0
ARC
8
DEFAULT_255_1_234
10
5.3175922
20
-1.535042
40
0.3154751
50
222.9548379
51
244.1372485
0
ARC
8
DEFAULT_255_1_234
10
5.3053997
20
-1.5487166
40
0.2972382
50
213.3439227
51
222.6271327
0
ARC
8
DEFAULT_255_1_234
10
5.2861932
20
-1.5617692
40
0.274019
50
180.4316517
51
213.2713999
0
ARC
8
DEFAULT_255_1_234
10
5.3436933
20
-1.557089
40
0.33158
50
179.9992944
51
181.1655061
0
ARC
8
DEFAULT_255_1_234
10
5.384635
20
-1.5536439
40
0.3725376
50
164.6186108
51
180.5292368
0
ARC
8
DEFAULT_255_1_234
10
5.2948213
20
-1.5294899
40
0.2795349
50
132.2454369
51
164.5092287
0
ARC
8
DEFAULT_255_1_234
10
5.3235317
20
-1.5619972
40
0.3229019
50
100.7052766
51
132.1387266
0
ARC
8
DEFAULT_255_1_234
10
5.3540289
20
-1.6997914
40
0.4639835
50
89.6732617
51
101.2449487
0
ARC
8
DEFAULT_255_1_234
10
5.3602487
20
-1.682301
40
0.4464999
50
76.2876631
51
90.4586123
0
ARC
8
DEFAULT_255_1_234
10
5.3908719
20
-1.560078
40
0.3205023
50
47.8240157
51
76.4266918
0
ARC
8
DEFAULT_255_1_234
10
5.4131269
20
-1.534041
40
0.2862661
50
6.9168658
51
47.6261438
0
ARC
8
DEFAULT_255_1_234
10
5.2944672
20
-1.555963
40
0.4067708
50
359.8419705
51
7.9694496
0
ARC
8
DEFAULT_255_1_234
10
5.3286569
20
-2.1000075
40
0.2513121
50
359.4454068
51
16.9256425
0
ARC
8
DEFAULT_255_1_234
10
5.375538
20
-2.0870967
40
0.2027071
50
17.292259
51
45.462717
0
ARC
8
DEFAULT_255_1_234
10
5.3701316
20
-2.0917566
40
0.2098212
50
45.3028762
51
83.1921472
0
ARC
8
DEFAULT_255_1_234
10
5.3558
20
-2.1719105
40
0.2911472
50
82.2614531
51
90.143954
0
ARC
8
DEFAULT_255_1_234
10
5.352712
20
-2.148605
40
0.2678513
50
89.4959189
51
104.8579811
0
ARC
8
DEFAULT_255_1_234
10
5.3350379
20
-2.081611
40
0.1985654
50
104.8855873
51
135.2448349
0
ARC
8
DEFAULT_255_1_234
10
5.3400152
20
-2.0860664
40
0.2052373
50
135.3398955
51
172.104394
0
ARC
8
DEFAULT_255_1_234
10
5.420721
20
-2.1015075
40
0.2873299
50
171.2651929
51
180.1859362
0
ARC
8
DEFAULT_255_1_234
10
5.4037911
20
-2.1047267
40
0.2704083
50
179.515471
51
193.6466734
0
ARC
8
DEFAULT_255_1_234
10
5.322168
20
-2.1255223
40
0.1861855
50
193.3540587
51
225.8256931
0
ARC
8
DEFAULT_255_1_234
10
5.3262437
20
-2.1184476
40
0.1941102
50
226.418029
51
255.8553723
0
ARC
8
DEFAULT_255_1_234
10
5.351887
20
-2.0248002
40
0.2911917
50
255.4655572
51
268.7985967
0
ARC
8
DEFAULT_255_1_234
10
5.3566062
20
-1.9409509
40
0.3751331
50
268.3464808
51
270.0104874
0
ARC
8
DEFAULT_255_1_234
10
5.358945
20
-2.0093862
40
0.3067064
50
269.575914
51
282.0823146
0
ARC
8
DEFAULT_255_1_234
10
5.3814359
20
-2.1088197
40
0.2047712
50
281.7522535
51
306.6056425
0
ARC
8
DEFAULT_255_1_234
10
5.3912785
20
-2.1249513
40
0.1859604
50
307.1350025
51
314.0277951
0
ARC
8
DEFAULT_255_1_234
10
5.3876869
20
-2.1223234
40
0.1903475
50
314.2553419
51
350.169324
0
ARC
8
DEFAULT_255_1_234
10
5.3025338
20
-2.1038591
40
0.2774269
50
349.4145679
51
0.2930737
0
ARC
8
DEFAULT_255_1_234
10
5.3545771
20
-1.5879647
40
0.2300764
50
89.477591
51
105.729794
0
ARC
8
DEFAULT_255_1_234
10
5.3409684
20
-1.5374363
40
0.1777519
50
105.922966
51
135.1662921
0
ARC
8
DEFAULT_255_1_234
10
5.3430187
20
-1.5388581
40
0.1802087
50
135.3053131
51
168.9882338
0
ARC
8
DEFAULT_255_1_234
10
5.4257759
20
-1.5578279
40
0.2650806
50
168.3802067
51
180.3602358
0
ARC
8
DEFAULT_255_1_234
10
5.4029339
20
-1.5615959
40
0.2422425
50
179.5029707
51
194.9126783
0
ARC
8
DEFAULT_255_1_234
10
5.3444
20
-1.576989
40
0.1817188
50
194.9722181
51
224.1943972
0
ARC
8
DEFAULT_255_1_234
10
5.3415867
20
-1.5792831
40
0.1781027
50
224.2961434
51
262.0157375
0
ARC
8
DEFAULT_255_1_234
10
5.355811
20
-1.5061339
40
0.2525492
50
261.1250369
51
270.1959853
0
ARC
8
DEFAULT_255_1_234
10
5.3587865
20
-1.5248661
40
0.233825
50
269.4825617
51
285.0988277
0
ARC
8
DEFAULT_255_1_234
10
5.3742024
20
-1.582701
40
0.1739712
50
285.1585659
51
315.9484648
0
ARC
8
DEFAULT_255_1_234
10
5.3653036
20
-1.5745114
40
0.1860616
50
316.0412958
51
351.9162715
0
ARC
8
DEFAULT_255_1_234
10
5.2919991
20
-1.5603755
40
0.2606517
50
351.1056823
51
0.1936567
0
ARC
8
DEFAULT_255_1_234
10
5.318282
20
-1.5573631
40
0.234377
50
359.4789506
51
16.0679113
0
ARC
8
DEFAULT_255_1_234
10
5.3658779
20
-1.544519
40
0.1850875
50
16.3251951
51
44.791304
0
ARC
8
DEFAULT_255_1_234
10
5.364106
20
-1.5444661
40
0.186312
50
44.3958661
51
88.2498933
0
ARC
8
DEFAULT_255_1_234
10
5.3567614
20
-1.6055846
40
0.2476868
50
86.9833827
51
90.0200148
0
LINE
8
DEFAULT_255_1_234
10
9.8484137
20
-0.6668567
11
9.8484137
21
-1.8419
0
LINE
8
DEFAULT_255_1_234
10
9.8484137
20
-1.8419
11
9.6990234
21
-1.8419
0
LINE
8
DEFAULT_255_1_234
10
9.6990234
20
-1.8419
11
9.6990234
21
-0.8515867
0
LINE
8
DEFAULT_255_1_234
10
9.6990234
20
-0.8515867
11
9.3994396
21
-0.9616215
0
LINE
8
DEFAULT_255_1_234
10
9.3994396
20
-0.9616215
11
9.3994396
21
-0.8266883
0
LINE
8
DEFAULT_255_1_234
10
9.3994396
20
-0.8266883
11
9.8251217
21
-0.6668567
0
LINE
8
DEFAULT_255_1_234
10
9.8251217
20
-0.6668567
11
9.8484137
21
-0.6668567
0
LINE
8
DEFAULT_255_1_234
10
10.8403334
20
-0.6716757
11
10.8668381
21
-0.6716757
0
LINE
8
DEFAULT_255_1_234
10
10.8668381
20
-0.6716757
11
10.8668381
21
-0.797774
0
LINE
8
DEFAULT_255_1_234
10
10.8668381
20
-0.797774
11
10.8395302
21
-0.797774
0
LINE
8
DEFAULT_255_1_234
10
10.2925688
20
-1.3969417
11
10.2925688
21
-1.3399164
0
LINE
8
DEFAULT_255_1_234
10
10.4419592
20
-1.3591925
11
10.4419592
21
-1.4138083
0
ARC
8
DEFAULT_255_1_234
10
10.844765
20
-1.2975545
40
0.4998079
50
90.6001036
51
104.514704
0
ARC
8
DEFAULT_255_1_234
10
10.8059166
20
-1.1530869
40
0.3502176
50
104.2855254
51
133.862935
0
ARC
8
DEFAULT_255_1_234
10
10.8222923
20
-1.163917
40
0.3693984
50
134.5302688
51
161.6210873
0
ARC
8
DEFAULT_255_1_234
10
10.9876112
20
-1.2222105
40
0.5446739
50
161.2849839
51
174.2076652
0
ARC
8
DEFAULT_255_1_234
10
11.1283049
20
-1.2416213
40
0.6866274
50
173.7810589
51
174.9254635
0
ARC
8
DEFAULT_255_1_234
10
10.6732881
20
-1.3799161
40
0.3033419
50
95.8330959
51
138.9954921
0
ARC
8
DEFAULT_255_1_234
10
10.6956237
20
-1.5077625
40
0.4328947
50
89.8753725
51
97.0544009
0
ARC
8
DEFAULT_255_1_234
10
10.7003703
20
-1.4242252
40
0.3493769
50
71.6407809
51
90.6240094
0
ARC
8
DEFAULT_255_1_234
10
10.7154276
20
-1.3687918
40
0.2920396
50
39.6367836
51
71.019018
0
ARC
8
DEFAULT_255_1_234
10
10.6517749
20
-1.4238002
40
0.3761538
50
10.658731
51
39.9043955
0
ARC
8
DEFAULT_255_1_234
10
10.4969832
20
-1.4574314
40
0.5345136
50
359.682601
51
11.132623
0
ARC
8
DEFAULT_255_1_234
10
10.4929963
20
-1.464499
40
0.5385081
50
347.2486944
51
0.4369317
0
ARC
8
DEFAULT_255_1_234
10
10.659744
20
-1.5046193
40
0.3670249
50
318.1409698
51
347.6118597
0
ARC
8
DEFAULT_255_1_234
10
10.6922433
20
-1.5313298
40
0.3250007
50
275.6342139
51
317.8248465
0
ARC
8
DEFAULT_255_1_234
10
10.6701544
20
-1.4013781
40
0.4565864
50
269.8874292
51
276.7917694
0
ARC
8
DEFAULT_255_1_234
10
10.6646615
20
-1.5039257
40
0.3540676
50
246.9140195
51
270.7437342
0
ARC
8
DEFAULT_255_1_234
10
10.6653005
20
-1.5181616
40
0.3412781
50
218.1665114
51
245.878116
0
ARC
8
DEFAULT_255_1_234
10
10.7532466
20
-1.4445721
40
0.455911
50
191.4115814
51
218.6077802
0
ARC
8
DEFAULT_255_1_234
10
10.9470555
20
-1.4011167
40
0.6545001
50
179.6345085
51
191.7836486
0
ARC
8
DEFAULT_255_1_234
10
11.5052892
20
-1.3332303
40
1.2127388
50
171.4525249
51
180.3158839
0
ARC
8
DEFAULT_255_1_234
10
11.0657768
20
-1.2648392
40
0.7679464
50
157.9802646
51
171.6246686
0
ARC
8
DEFAULT_255_1_234
10
10.8443789
20
-1.1765579
40
0.5296008
50
141.4298019
51
157.854097
0
ARC
8
DEFAULT_255_1_234
10
10.7802109
20
-1.1311619
40
0.4511509
50
102.8715806
51
140.8564722
0
ARC
8
DEFAULT_255_1_234
10
10.8449725
20
-1.3751448
40
0.7034845
50
90.3778349
51
103.5869322
0
ARC
8
DEFAULT_255_1_234
10
10.6711501
20
-1.435627
40
0.2370698
50
89.8751008
51
126.2071704
0
ARC
8
DEFAULT_255_1_234
10
10.6757291
20
-1.4510697
40
0.2522934
50
124.9745049
51
144.895901
0
ARC
8
DEFAULT_255_1_234
10
10.6581481
20
-1.436744
40
0.2296779
50
145.2974905
51
160.2660252
0
ARC
8
DEFAULT_255_1_234
10
10.965402
20
-1.4169929
40
0.5234525
50
179.6514266
51
190.2855912
0
ARC
8
DEFAULT_255_1_234
10
10.7960157
20
-1.4489214
40
0.3510893
50
190.0945431
51
207.5098196
0
ARC
8
DEFAULT_255_1_234
10
10.7394427
20
-1.4758377
40
0.288489
50
207.9583163
51
216.3251085
0
ARC
8
DEFAULT_255_1_234
10
10.7054535
20
-1.5037895
40
0.2445587
50
215.7661442
51
232.5456785
0
ARC
8
DEFAULT_255_1_234
10
10.6671518
20
-1.5524518
40
0.1826382
50
232.8005391
51
270.6605633
0
ARC
8
DEFAULT_255_1_234
10
10.6717219
20
-1.5160388
40
0.2190529
50
269.35537
51
288.4744281
0
ARC
8
DEFAULT_255_1_234
10
10.6810116
20
-1.5509882
40
0.1829749
50
289.1833337
51
322.9683818
0
ARC
8
DEFAULT_255_1_234
10
10.6198638
20
-1.5027609
40
0.2608399
50
322.6007884
51
346.5182367
0
ARC
8
DEFAULT_255_1_234
10
10.5041234
20
-1.4732384
40
0.3802777
50
346.2582162
51
358.7741648
0
ARC
8
DEFAULT_255_1_234
10
10.4022903
20
-1.4677035
40
0.4822176
50
358.3755224
51
0.0098023
0
ARC
8
DEFAULT_255_1_234
10
10.477909
20
-1.4649343
40
0.4066078
50
359.6214041
51
11.2839074
0
ARC
8
DEFAULT_255_1_234
10
10.6056237
20
-1.4382934
40
0.2761514
50
11.0482309
51
31.8146458
0
ARC
8
DEFAULT_255_1_234
10
10.636528
20
-1.4215416
40
0.2410679
50
32.3035391
51
38.082671
0
ARC
8
DEFAULT_255_1_234
10
10.678594
20
-1.3834338
40
0.1844966
50
36.825067
51
85.7415724
0
ARC
8
DEFAULT_255_1_234
10
10.6718773
20
-1.4334699
40
0.2349122
50
85.0140713
51
90.0513278
0
ENDSEC
0
EOF