0
SECTION
2
HEADER
9
$MEASUREMENT
70
1
0
ENDSEC
0
SECTION
2
TABLES
0
TABLE
2
LTYPE
0
LTYPE
72
65
70
64
2
CONTINUOUS
3
______
73
0
40
0
0
ENDTAB
0
TABLE
2
LAYER
0
LAYER
2
DEFAULT_255_2_778
70
0
62
255
6
CONTINUOUS
0
LAYER
2
DEFAULT_255_1_234
70
0
62
255
6
CONTINUOUS
0
ENDTAB
0
ENDSEC
0
SECTION
2
ENTITIES
0
LINE
8
DEFAULT_255_2_778
10
2.9587417
20
5.1594166
11
4.2816417
21
5.1594166
0
LINE
8
DEFAULT_255_2_778
10
4.2816417
20
5.1594166
11
4.2816417
21
2.5136166
0
LINE
8
DEFAULT_255_2_778
10
4.2816417
20
2.5136166
11
2.9587417
21
2.5136166
0
LINE
8
DEFAULT_255_2_778
10
2.9587417
20
2.5136166
11
2.9587417
21
5.1594166
0
LINE
8
DEFAULT_255_2_778
10
8.2504
20
2.5135333
11
8.2504
21
-2.7781667
0
LINE
8
DEFAULT_255_2_778
10
8.2504
20
5.1593333
11
8.2504
21
10.4510333
0
LINE
8
DEFAULT_255_2_778
10
5.6045667
20
5.1594166
11
10.8962667
21
5.1594166
0
LINE
8
DEFAULT_255_2_778
10
10.8962667
20
5.1594166
11
10.8962667
21
2.5136166
0
LINE
8
DEFAULT_255_2_778
10
10.8962667
20
2.5136166
11
5.6045667
21
2.5136166
0
LINE
8
DEFAULT_255_2_778
10
5.6045667
20
2.5136166
11
5.6045667
21
5.1594166
0
LINE
8
DEFAULT_255_2_778
10
4.2816417
20
5.1594166
11
5.6045417
21
5.1594166
0
LINE
8
DEFAULT_255_2_778
10
5.6045417
20
5.1594166
11
5.6045417
21
2.5136166
0
LINE
8
DEFAULT_255_2_778
10
5.6045417
20
2.5136166
11
4.2816417
21
2.5136166
0
LINE
8
DEFAULT_255_2_778
10
4.2816417
20
2.5136166
11
4.2816417
21
5.1594166
0
LINE
8
DEFAULT_255_2_778
10
4.2816417
20
2.5136166
11
5.6045417
21
5.1594166
0
LINE
8
DEFAULT_255_2_778
10
5.6045417
20
2.5136166
11
4.2816417
21
5.1594166
0
LINE
8
DEFAULT_255_1_234
10
4.7984293
20
8.162
11
4.6867881
21
8.4672061
0
LINE
8
DEFAULT_255_1_234
10
4.6867881
20
8.4672061
11
4.1968521
21
8.4672061
0
LINE
8
DEFAULT_255_1_234
10
4.1968521
20
8.4672061
11
4.0868173
21
8.162
0
LINE
8
DEFAULT_255_1_234
10
4.0868173
20
8.162
11
3.9277889
21
8.162
0
LINE
8
DEFAULT_255_1_234
10
3.9277889
20
8.162
11
4.3743535
21
9.3314211
0
LINE
8
DEFAULT_255_1_234
10
4.3743535
20
9.3314211
11
4.5092867
21
9.3314211
0
LINE
8
DEFAULT_255_1_234
10
4.5092867
20
9.3314211
11
4.9566545
21
8.162
0
LINE
8
DEFAULT_255_1_234
10
4.9566545
20
8.162
11
4.7984293
21
8.162
0
LINE
8
DEFAULT_255_1_234
10
4.4418201
20
9.1410689
11
4.2434362
21
8.5941075
0
LINE
8
DEFAULT_255_1_234
10
4.2434362
20
8.5941075
11
4.6410072
21
8.5941075
0
LINE
8
DEFAULT_255_1_234
10
4.6410072
20
8.5941075
11
4.4418201
21
9.1410689
0
LINE
8
DEFAULT_255_1_234
10
5.563854
20
9.3370433
11
5.563854
21
8.162
0
LINE
8
DEFAULT_255_1_234
10
5.563854
20
8.162
11
5.4144636
21
8.162
0
LINE
8
DEFAULT_255_1_234
10
5.4144636
20
8.162
11
5.4144636
21
9.1523133
0
LINE
8
DEFAULT_255_1_234
10
5.4144636
20
9.1523133
11
5.1148798
21
9.0422785
0
LINE
8
DEFAULT_255_1_234
10
5.1148798
20
9.0422785
11
5.1148798
21
9.1772117
0
LINE
8
DEFAULT_255_1_234
10
5.1148798
20
9.1772117
11
5.5405619
21
9.3370433
0
LINE
8
DEFAULT_255_1_234
10
5.5405619
20
9.3370433
11
5.563854
21
9.3370433
0
LINE
8
DEFAULT_255_1_234
10
4.7896293
20
-1.8419
11
4.6779881
21
-1.5366939
0
LINE
8
DEFAULT_255_1_234
10
4.6779881
20
-1.5366939
11
4.1880521
21
-1.5366939
0
LINE
8
DEFAULT_255_1_234
10
4.1880521
20
-1.5366939
11
4.0780173
21
-1.8419
0
LINE
8
DEFAULT_255_1_234
10
4.0780173
20
-1.8419
11
3.9189889
21
-1.8419
0
LINE
8
DEFAULT_255_1_234
10
3.9189889
20
-1.8419
11
4.3655535
21
-0.6724789
0
LINE
8
DEFAULT_255_1_234
10
4.3655535
20
-0.6724789
11
4.5004867
21
-0.6724789
0
LINE
8
DEFAULT_255_1_234
10
4.5004867
20
-0.6724789
11
4.9478545
21
-1.8419
0
LINE
8
DEFAULT_255_1_234
10
4.9478545
20
-1.8419
11
4.7896293
21
-1.8419
0
LINE
8
DEFAULT_255_1_234
10
4.4330201
20
-0.8628311
11
4.2346362
21
-1.4097925
0
LINE
8
DEFAULT_255_1_234
10
4.2346362
20
-1.4097925
11
4.6322072
21
-1.4097925
0
LINE
8
DEFAULT_255_1_234
10
4.6322072
20
-1.4097925
11
4.4330201
21
-0.8628311
0
LINE
8
DEFAULT_255_1_234
10
5.8329521
20
-1.7206208
11
5.8329521
21
-1.8419
0
LINE
8
DEFAULT_255_1_234
10
5.8329521
20
-1.8419
11
5.0667243
21
-1.8419
0
LINE
8
DEFAULT_255_1_234
10
5.0667243
20
-1.8419
11
5.0667243
21
-1.7350779
0
LINE
8
DEFAULT_255_1_234
10
5.0667243
20
-1.7350779
11
5.4715239
21
-1.2853005
0
LINE
8
DEFAULT_255_1_234
10
5.1928226
20
-1.0170405
11
5.0442354
21
-1.0170405
0
LINE
8
DEFAULT_255_1_234
10
5.5590698
20
-1.3808782
11
5.245832
21
-1.7206208
0
LINE
8
DEFAULT_255_1_234
10
5.245832
20
-1.7206208
11
5.8329521
21
-1.7206208
0
ARC
8
DEFAULT_255_1_234
10
4.1225072
20
-0.0923473
40
1.8008286
50
318.5132453
51
320.7828378
0
ARC
8
DEFAULT_255_1_234
10
4.6512047
20
-0.5226574
40
1.1191493
50
320.7372736
51
323.9737074
0
ARC
8
DEFAULT_255_1_234
10
5.0431903
20
-0.8066639
40
0.6350923
50
323.8961724
51
328.6421089
0
ARC
8
DEFAULT_255_1_234
10
5.2478498
20
-0.9328969
40
0.3946393
50
328.8299013
51
331.789948
0
ARC
8
DEFAULT_255_1_234
10
5.3475677
20
-0.9843491
40
0.2824501
50
331.4255242
51
352.9364833
0
ARC
8
DEFAULT_255_1_234
10
5.3612177
20
-0.9874024
40
0.2685315
50
353.2248685
51
0.0169286
0
ARC
8
DEFAULT_255_1_234
10
5.3822054
20
-0.985105
40
0.2475536
50
359.4866256
51
15.9339782
0
ARC
8
DEFAULT_255_1_234
10
5.432904
20
-0.9714714
40
0.1950618
50
16.1714718
51
43.5284424
0
ARC
8
DEFAULT_255_1_234
10
5.4406348
20
-0.9637427
40
0.184134
50
43.4415429
51
83.1661404
0
ARC
8
DEFAULT_255_1_234
10
5.4272266
20
-1.0374229
40
0.258926
50
82.160215
51
90.1505798
0
ARC
8
DEFAULT_255_1_234
10
5.4240694
20
-1.0911135
40
0.3126255
50
89.5460705
51
102.5418777
0
ARC
8
DEFAULT_255_1_234
10
5.399778
20
-0.9880335
40
0.2067346
50
102.1739365
51
129.2061916
0
ARC
8
DEFAULT_255_1_234
10
5.3918852
20
-0.9755906
40
0.1921118
50
129.7279328
51
135.7542026
0
ARC
8
DEFAULT_255_1_234
10
5.4040379
20
-0.9852955
40
0.2075944
50
136.175737
51
166.3674722
0
ARC
8
DEFAULT_255_1_234
10
5.5047298
20
-1.0122818
40
0.3118201
50
165.9092917
51
178.8683903
0
ARC
8
DEFAULT_255_1_234
10
5.591216
20
-1.0169821
40
0.3983935
50
178.438168
51
180.0083905
0
ARC
8
DEFAULT_255_1_234
10
5.4510762
20
-1.0130769
40
0.4068601
50
163.2878735
51
180.5581814
0
ARC
8
DEFAULT_255_1_234
10
5.3709023
20
-0.991016
40
0.3237344
50
133.454115
51
162.9470031
0
ARC
8
DEFAULT_255_1_234
10
5.3887565
20
-1.01
40
0.349795
50
100.7869394
51
133.4384016
0
ARC
8
DEFAULT_255_1_234
10
5.4235336
20
-1.1648681
40
0.5084616
50
89.6605301
51
101.3704185
0
ARC
8
DEFAULT_255_1_234
10
5.4301675
20
-1.1587504
40
0.502348
50
78.2171172
51
90.4130393
0
ARC
8
DEFAULT_255_1_234
10
5.4656753
20
-0.9963363
40
0.3361092
50
55.9268222
51
78.4888551
0
ARC
8
DEFAULT_255_1_234
10
5.4853193
20
-0.9624676
40
0.2970617
50
47.9292255
51
55.4054003
0
ARC
8
DEFAULT_255_1_234
10
5.4954754
20
-0.9521498
40
0.2825983
50
4.3347696
51
48.0560701
0
ARC
8
DEFAULT_255_1_234
10
5.3859148
20
-0.9691399
40
0.393225
50
359.925209
51
5.5967654
0
ARC
8
DEFAULT_255_1_234
10
5.4288039
20
-0.9635184
40
0.3503892
50
337.8914096
51
358.9967724
0
ARC
8
DEFAULT_255_1_234
10
5.1574451
20
-0.8588294
40
0.6412172
50
326.9135351
51
338.3505194
0
ARC
8
DEFAULT_255_1_234
10
4.7588755
20
-0.6033716
40
1.1146189
50
319.6472867
51
327.095818
0
ARC
8
DEFAULT_255_1_234
10
4.3755758
20
-0.2872
40
1.6114559
50
317.2586784
51
319.9046139
0
ENDSEC
0
EOF