0
SECTION
2
HEADER
9
$MEASUREMENT
70
1
0
ENDSEC
0
SECTION
2
TABLES
0
TABLE
2
LTYPE
0
LTYPE
72
65
70
64
2
CONTINUOUS
3
______
73
0
40
0
0
ENDTAB
0
TABLE
2
LAYER
0
LAYER
2
DEFAULT_255_2_778
70
0
62
255
6
CONTINUOUS
0
LAYER
2
DEFAULT_255_1_234
70
0
62
255
6
CONTINUOUS
0
ENDTAB
0
ENDSEC
0
SECTION
2
ENTITIES
0
LINE
8
DEFAULT_255_2_778
10
10.0449125
20
6.4823082
11
8.0605125
21
1.1906082
0
LINE
8
DEFAULT_255_2_778
10
8.0605125
20
1.1906082
11
8.0605125
21
-2.7780918
0
LINE
8
DEFAULT_255_2_778
10
8.0604834
20
10.4511041
11
8.0604834
21
5.8209041
0
LINE
8
DEFAULT_255_2_778
10
8.0604834
20
5.8209041
11
10.7062834
21
5.8209041
0
LINE
8
DEFAULT_255_2_778
10
5.4146084
20
3.3073
11
8.8542084
21
3.3073
0
LINE
8
DEFAULT_255_2_778
10
9.2511709
20
4.3657
11
5.4146709
21
4.3657
0
ARC
8
DEFAULT_255_2_778
10
6.6008182
20
3.8362436
40
1.3159329
50
228.5812791
51
264.4253962
0
ARC
8
DEFAULT_255_2_778
10
6.601005
20
3.8396493
40
1.318612
50
183.3453098
51
228.6730918
0
ARC
8
DEFAULT_255_2_778
10
6.6177337
20
3.8403028
40
1.3353503
50
179.9970927
51
183.3314168
0
ARC
8
DEFAULT_255_2_778
10
6.6466294
20
3.8402716
40
1.3642461
50
179.8797694
51
179.9958437
0
ARC
8
DEFAULT_255_2_778
10
6.6875233
20
3.8456236
40
1.4051394
50
180.0048431
51
180.1015023
0
ARC
8
DEFAULT_255_2_778
10
6.5984
20
3.8469764
40
1.3160167
50
143.9012652
51
180.064068
0
ARC
8
DEFAULT_255_2_778
10
6.6016569
20
3.847181
40
1.3185293
50
99.1519934
51
143.9918337
0
ARC
8
DEFAULT_255_2_778
10
6.6041868
20
3.8298472
40
1.3360448
50
95.6355718
51
99.1408717
0
ARC
8
DEFAULT_255_2_778
10
3.9639833
20
3.8496189
40
1.3160358
50
48.5853417
51
84.4271117
0
ARC
8
DEFAULT_255_2_778
10
3.9639666
20
3.8464704
40
1.3184098
50
3.3436626
51
48.6753074
0
ARC
8
DEFAULT_255_2_778
10
3.9468722
20
3.8457659
40
1.3355163
50
359.9972322
51
3.3310601
0
ARC
8
DEFAULT_255_2_778
10
3.909336
20
3.8457016
40
1.3730526
50
359.8928711
51
359.999991
0
ARC
8
DEFAULT_255_2_778
10
3.9173331
20
3.8402708
40
1.3650561
50
0.0041623
51
0.1201934
0
ARC
8
DEFAULT_255_2_778
10
3.9665457
20
3.8389195
40
1.3158441
50
323.8980764
51
0.0631544
0
ARC
8
DEFAULT_255_2_778
10
3.9631105
20
3.8388197
40
1.3185626
50
279.1518251
51
323.9895355
0
ARC
8
DEFAULT_255_2_778
10
3.960617
20
3.8560073
40
1.3359281
50
275.6347094
51
279.1401615
0
LINE
8
DEFAULT_255_1_234
10
4.5569137
20
9.3370433
11
4.5569137
21
8.162
0
LINE
8
DEFAULT_255_1_234
10
4.5569137
20
8.162
11
4.4075234
21
8.162
0
LINE
8
DEFAULT_255_1_234
10
4.4075234
20
8.162
11
4.4075234
21
9.1523133
0
LINE
8
DEFAULT_255_1_234
10
4.4075234
20
9.1523133
11
4.1079396
21
9.0422785
0
LINE
8
DEFAULT_255_1_234
10
4.1079396
20
9.0422785
11
4.1079396
21
9.1772117
0
LINE
8
DEFAULT_255_1_234
10
4.1079396
20
9.1772117
11
4.5336217
21
9.3370433
0
LINE
8
DEFAULT_255_1_234
10
4.5336217
20
9.3370433
11
4.5569137
21
9.3370433
0
LINE
8
DEFAULT_255_1_234
10
5.1793734
20
8.7177963
11
5.0605037
21
8.7483169
0
LINE
8
DEFAULT_255_1_234
10
5.0605037
20
8.7483169
11
5.1199386
21
9.3314211
0
LINE
8
DEFAULT_255_1_234
10
5.1199386
20
9.3314211
11
5.7191063
21
9.3314211
0
LINE
8
DEFAULT_255_1_234
10
5.7191063
20
9.3314211
11
5.7191063
21
9.1940784
0
LINE
8
DEFAULT_255_1_234
10
5.7191063
20
9.1940784
11
5.2460369
21
9.1940784
0
LINE
8
DEFAULT_255_1_234
10
5.2460369
20
9.1940784
11
5.2106972
21
8.8752184
0
LINE
8
DEFAULT_255_1_234
10
5.0187387
20
8.4696156
11
5.1592941
21
8.4696156
0
LINE
8
DEFAULT_255_1_234
10
5.218729
20
8.7499232
11
5.1793734
21
8.7177963
0
ARC
8
DEFAULT_255_1_234
10
5.3961756
20
8.557223
40
0.3681349
50
93.7182161
51
120.2538958
0
ARC
8
DEFAULT_255_1_234
10
5.4056019
20
8.4764394
40
0.449379
50
89.9660152
51
94.2496022
0
ARC
8
DEFAULT_255_1_234
10
5.4096753
20
8.5353549
40
0.390482
50
73.8043271
51
90.5585896
0
ARC
8
DEFAULT_255_1_234
10
5.433165
20
8.6211602
40
0.3015334
50
41.3071453
51
73.5430202
0
ARC
8
DEFAULT_255_1_234
10
5.3915477
20
8.5853324
40
0.3564457
50
13.5075983
51
41.2174222
0
ARC
8
DEFAULT_255_1_234
10
5.2273681
20
8.5423486
40
0.5261351
50
1.1331335
51
13.8829381
0
ARC
8
DEFAULT_255_1_234
10
5.086205
20
8.5347665
40
0.6674378
50
359.9919444
51
1.544251
0
ARC
8
DEFAULT_255_1_234
10
5.2138876
20
8.530628
40
0.5397702
50
347.8572367
51
0.4293338
0
ARC
8
DEFAULT_255_1_234
10
5.3889194
20
8.4909736
40
0.3603188
50
323.673004
51
348.1672506
0
ARC
8
DEFAULT_255_1_234
10
5.4183702
20
8.4730168
40
0.3259678
50
316.8171152
51
323.1492751
0
ARC
8
DEFAULT_255_1_234
10
5.4244891
20
8.469346
40
0.3189975
50
281.8396411
51
316.5457803
0
ARC
8
DEFAULT_255_1_234
10
5.3869155
20
8.6248762
40
0.4789527
50
269.5770101
51
282.4214771
0
ARC
8
DEFAULT_255_1_234
10
5.3797966
20
8.6035125
40
0.45759
50
256.2427136
51
270.4486331
0
ARC
8
DEFAULT_255_1_234
10
5.3498869
20
8.4835229
40
0.3339303
50
228.9023911
51
256.3314342
0
ARC
8
DEFAULT_255_1_234
10
5.3425101
20
8.4718746
40
0.32031
50
193.753695
51
228.5271154
0
ARC
8
DEFAULT_255_1_234
10
5.4663055
20
8.50818
40
0.4492253
50
184.924711
51
194.497588
0
ARC
8
DEFAULT_255_1_234
10
5.4855622
20
8.5117591
40
0.3289787
50
187.3600538
51
198.6732863
0
ARC
8
DEFAULT_255_1_234
10
5.3805916
20
8.4753674
40
0.217884
50
198.4451669
51
217.794479
0
ARC
8
DEFAULT_255_1_234
10
5.3510091
20
8.4544085
40
0.1816698
50
218.2887171
51
228.5612368
0
ARC
8
DEFAULT_255_1_234
10
5.3607878
20
8.4675963
40
0.1980329
50
228.9654866
51
258.1234728
0
ARC
8
DEFAULT_255_1_234
10
5.3813588
20
8.5556833
40
0.2884748
50
257.7258293
51
270.401361
0
ARC
8
DEFAULT_255_1_234
10
5.3858474
20
8.5111821
40
0.2439788
50
269.4204404
51
286.4209037
0
ARC
8
DEFAULT_255_1_234
10
5.4006962
20
8.4572657
40
0.1880666
50
286.7251356
51
320.600362
0
ARC
8
DEFAULT_255_1_234
10
5.3623787
20
8.4883595
40
0.2374121
50
320.6712579
51
344.5441685
0
ARC
8
DEFAULT_255_1_234
10
5.2467113
20
8.5223045
40
0.3579479
50
344.2412205
51
356.7357071
0
ARC
8
DEFAULT_255_1_234
10
5.1218262
20
8.5326444
40
0.4832297
50
356.3548756
51
0.0500261
0
ARC
8
DEFAULT_255_1_234
10
5.2554771
20
8.535765
40
0.3495889
50
359.5576869
51
12.953486
0
ARC
8
DEFAULT_255_1_234
10
5.3609668
20
8.5613434
40
0.2410532
50
12.6490276
51
41.6081334
0
ARC
8
DEFAULT_255_1_234
10
5.3840039
20
8.5809321
40
0.2108218
50
41.7850273
51
85.9892764
0
ARC
8
DEFAULT_255_1_234
10
5.3716776
20
8.4996462
40
0.2928454
50
84.6957577
51
90.0676183
0
ARC
8
DEFAULT_255_1_234
10
5.369326
20
8.4327716
40
0.3597255
50
89.6804936
51
99.1614436
0
ARC
8
DEFAULT_255_1_234
10
5.3487891
20
8.5555131
40
0.235281
50
98.9830931
51
113.8908934
0
ARC
8
DEFAULT_255_1_234
10
5.3258301
20
8.6096587
40
0.176479
50
114.1950727
51
127.3641004
0
LINE
8
DEFAULT_255_1_234
10
4.5569137
20
-0.6668567
11
4.5569137
21
-1.8419
0
LINE
8
DEFAULT_255_1_234
10
4.5569137
20
-1.8419
11
4.4075234
21
-1.8419
0
LINE
8
DEFAULT_255_1_234
10
4.4075234
20
-1.8419
11
4.4075234
21
-0.8515867
0
LINE
8
DEFAULT_255_1_234
10
4.4075234
20
-0.8515867
11
4.1079396
21
-0.9616215
0
LINE
8
DEFAULT_255_1_234
10
4.1079396
20
-0.9616215
11
4.1079396
21
-0.8266883
0
LINE
8
DEFAULT_255_1_234
10
4.1079396
20
-0.8266883
11
4.5336217
21
-0.6668567
0
LINE
8
DEFAULT_255_1_234
10
4.5336217
20
-0.6668567
11
4.5569137
21
-0.6668567
0
LINE
8
DEFAULT_255_1_234
10
5.5488334
20
-0.6716757
11
5.5753381
21
-0.6716757
0
LINE
8
DEFAULT_255_1_234
10
5.5753381
20
-0.6716757
11
5.5753381
21
-0.797774
0
LINE
8
DEFAULT_255_1_234
10
5.5753381
20
-0.797774
11
5.5480302
21
-0.797774
0
LINE
8
DEFAULT_255_1_234
10
5.0010688
20
-1.3969417
11
5.0010688
21
-1.3399164
0
LINE
8
DEFAULT_255_1_234
10
5.1504592
20
-1.3591925
11
5.1504592
21
-1.4138083
0
ARC
8
DEFAULT_255_1_234
10
5.553265
20
-1.2975545
40
0.4998079
50
90.6001036
51
104.514704
0
ARC
8
DEFAULT_255_1_234
10
5.5144166
20
-1.1530869
40
0.3502176
50
104.2855254
51
133.862935
0
ARC
8
DEFAULT_255_1_234
10
5.5307923
20
-1.163917
40
0.3693984
50
134.5302688
51
161.6210873
0
ARC
8
DEFAULT_255_1_234
10
5.6961112
20
-1.2222105
40
0.5446739
50
161.2849839
51
174.2076652
0
ARC
8
DEFAULT_255_1_234
10
5.8368049
20
-1.2416213
40
0.6866274
50
173.7810589
51
174.9254635
0
ARC
8
DEFAULT_255_1_234
10
5.3817881
20
-1.3799161
40
0.3033419
50
95.8330959
51
138.9954921
0
ARC
8
DEFAULT_255_1_234
10
5.4041237
20
-1.5077625
40
0.4328947
50
89.8753725
51
97.0544009
0
ARC
8
DEFAULT_255_1_234
10
5.4088703
20
-1.4242252
40
0.3493769
50
71.6407809
51
90.6240094
0
ARC
8
DEFAULT_255_1_234
10
5.4239276
20
-1.3687918
40
0.2920396
50
39.6367836
51
71.019018
0
ARC
8
DEFAULT_255_1_234
10
5.3602749
20
-1.4238002
40
0.3761538
50
10.658731
51
39.9043955
0
ARC
8
DEFAULT_255_1_234
10
5.2054832
20
-1.4574314
40
0.5345136
50
359.682601
51
11.132623
0
ARC
8
DEFAULT_255_1_234
10
5.2014963
20
-1.464499
40
0.5385081
50
347.2486944
51
0.4369317
0
ARC
8
DEFAULT_255_1_234
10
5.368244
20
-1.5046193
40
0.3670249
50
318.1409698
51
347.6118597
0
ARC
8
DEFAULT_255_1_234
10
5.4007433
20
-1.5313298
40
0.3250007
50
275.6342139
51
317.8248465
0
ARC
8
DEFAULT_255_1_234
10
5.3786544
20
-1.4013781
40
0.4565864
50
269.8874292
51
276.7917694
0
ARC
8
DEFAULT_255_1_234
10
5.3731615
20
-1.5039257
40
0.3540676
50
246.9140195
51
270.7437342
0
ARC
8
DEFAULT_255_1_234
10
5.3738005
20
-1.5181616
40
0.3412781
50
218.1665114
51
245.878116
0
ARC
8
DEFAULT_255_1_234
10
5.4617466
20
-1.4445721
40
0.455911
50
191.4115814
51
218.6077802
0
ARC
8
DEFAULT_255_1_234
10
5.6555555
20
-1.4011167
40
0.6545001
50
179.6345085
51
191.7836486
0
ARC
8
DEFAULT_255_1_234
10
6.2137892
20
-1.3332303
40
1.2127388
50
171.4525249
51
180.3158839
0
ARC
8
DEFAULT_255_1_234
10
5.7742768
20
-1.2648392
40
0.7679464
50
157.9802646
51
171.6246686
0
ARC
8
DEFAULT_255_1_234
10
5.5528789
20
-1.1765579
40
0.5296008
50
141.4298019
51
157.854097
0
ARC
8
DEFAULT_255_1_234
10
5.4887109
20
-1.1311619
40
0.4511509
50
102.8715806
51
140.8564722
0
ARC
8
DEFAULT_255_1_234
10
5.5534725
20
-1.3751448
40
0.7034845
50
90.3778349
51
103.5869322
0
ARC
8
DEFAULT_255_1_234
10
5.3796501
20
-1.435627
40
0.2370698
50
89.8751008
51
126.2071704
0
ARC
8
DEFAULT_255_1_234
10
5.3842291
20
-1.4510697
40
0.2522934
50
124.9745049
51
144.895901
0
ARC
8
DEFAULT_255_1_234
10
5.3666481
20
-1.436744
40
0.2296779
50
145.2974905
51
160.2660252
0
ARC
8
DEFAULT_255_1_234
10
5.673902
20
-1.4169929
40
0.5234525
50
179.6514266
51
190.2855912
0
ARC
8
DEFAULT_255_1_234
10
5.5045157
20
-1.4489214
40
0.3510893
50
190.0945431
51
207.5098196
0
ARC
8
DEFAULT_255_1_234
10
5.4479427
20
-1.4758377
40
0.288489
50
207.9583163
51
216.3251085
0
ARC
8
DEFAULT_255_1_234
10
5.4139535
20
-1.5037895
40
0.2445587
50
215.7661442
51
232.5456785
0
ARC
8
DEFAULT_255_1_234
10
5.3756518
20
-1.5524518
40
0.1826382
50
232.8005391
51
270.6605633
0
ARC
8
DEFAULT_255_1_234
10
5.3802219
20
-1.5160388
40
0.2190529
50
269.35537
51
288.4744281
0
ARC
8
DEFAULT_255_1_234
10
5.3895116
20
-1.5509882
40
0.1829749
50
289.1833337
51
322.9683818
0
ARC
8
DEFAULT_255_1_234
10
5.3283638
20
-1.5027609
40
0.2608399
50
322.6007884
51
346.5182367
0
ARC
8
DEFAULT_255_1_234
10
5.2126234
20
-1.4732384
40
0.3802777
50
346.2582162
51
358.7741648
0
ARC
8
DEFAULT_255_1_234
10
5.1107903
20
-1.4677035
40
0.4822176
50
358.3755224
51
0.0098023
0
ARC
8
DEFAULT_255_1_234
10
5.186409
20
-1.4649343
40
0.4066078
50
359.6214041
51
11.2839074
0
ARC
8
DEFAULT_255_1_234
10
5.3141237
20
-1.4382934
40
0.2761514
50
11.0482309
51
31.8146458
0
ARC
8
DEFAULT_255_1_234
10
5.345028
20
-1.4215416
40
0.2410679
50
32.3035391
51
38.082671
0
ARC
8
DEFAULT_255_1_234
10
5.387094
20
-1.3834338
40
0.1844966
50
36.825067
51
85.7415724
0
ARC
8
DEFAULT_255_1_234
10
5.3803773
20
-1.4334699
40
0.2349122
50
85.0140713
51
90.0513278
0
ENDSEC
0
EOF