0
SECTION
2
HEADER
9
$MEASUREMENT
70
1
0
ENDSEC
0
SECTION
2
TABLES
0
TABLE
2
LTYPE
0
LTYPE
72
65
70
64
2
CONTINUOUS
3
______
73
0
40
0
0
ENDTAB
0
TABLE
2
LAYER
0
LAYER
2
DEFAULT_255_2_778
70
0
62
255
6
CONTINUOUS
0
LAYER
2
DEFAULT_255_2_778_3
70
0
62
255
6
CONTINUOUS
0
LAYER
2
DEFAULT_255_1_234
70
0
62
255
6
CONTINUOUS
0
ENDTAB
0
ENDSEC
0
SECTION
2
ENTITIES
0
LINE
8
DEFAULT_255_2_778
10
14.2875125
20
6.4823082
11
12.3031125
21
1.1906082
0
LINE
8
DEFAULT_255_2_778
10
12.3031125
20
1.1906082
11
12.3031125
21
-2.7780918
0
LINE
8
DEFAULT_255_2_778
10
12.3030834
20
10.4510499
11
12.3030834
21
5.6885499
0
LINE
8
DEFAULT_255_2_778
10
12.3030834
20
5.6885499
11
14.9488834
21
5.6885499
0
LINE
8
DEFAULT_255_2_778
10
4.8947333
20
5.1594166
11
4.3656333
21
5.1594166
0
LINE
8
DEFAULT_255_2_778
10
4.3656333
20
5.1594166
11
4.3656333
21
2.5136166
0
LINE
8
DEFAULT_255_2_778
10
4.3656333
20
2.5136166
11
3.8364333
21
2.5136166
0
LINE
8
DEFAULT_255_2_778_3
10
13.2953564
20
3.8365
11
4.3656564
21
3.8365
0
LINE
8
DEFAULT_255_2_778
10
5.5562125
20
6.4823458
11
7.5406125
21
3.1750458
0
LINE
8
DEFAULT_255_2_778_3
10
7.5406125
20
3.1750458
11
9.5250125
21
6.4823458
0
LINE
8
DEFAULT_255_1_234
10
8.8083137
20
9.3370433
11
8.8083137
21
8.162
0
LINE
8
DEFAULT_255_1_234
10
8.8083137
20
8.162
11
8.6589234
21
8.162
0
LINE
8
DEFAULT_255_1_234
10
8.6589234
20
8.162
11
8.6589234
21
9.1523133
0
LINE
8
DEFAULT_255_1_234
10
8.6589234
20
9.1523133
11
8.3593396
21
9.0422785
0
LINE
8
DEFAULT_255_1_234
10
8.3593396
20
9.0422785
11
8.3593396
21
9.1772117
0
LINE
8
DEFAULT_255_1_234
10
8.3593396
20
9.1772117
11
8.7850217
21
9.3370433
0
LINE
8
DEFAULT_255_1_234
10
8.7850217
20
9.3370433
11
8.8083137
21
9.3370433
0
LINE
8
DEFAULT_255_1_234
10
9.7319636
20
9.3370433
11
9.7319636
21
8.162
0
LINE
8
DEFAULT_255_1_234
10
9.7319636
20
8.162
11
9.5825733
21
8.162
0
LINE
8
DEFAULT_255_1_234
10
9.5825733
20
8.162
11
9.5825733
21
9.1523133
0
LINE
8
DEFAULT_255_1_234
10
9.5825733
20
9.1523133
11
9.2829895
21
9.0422785
0
LINE
8
DEFAULT_255_1_234
10
9.2829895
20
9.0422785
11
9.2829895
21
9.1772117
0
LINE
8
DEFAULT_255_1_234
10
9.2829895
20
9.1772117
11
9.7086716
21
9.3370433
0
LINE
8
DEFAULT_255_1_234
10
9.7086716
20
9.3370433
11
9.7319636
21
9.3370433
0
LINE
8
DEFAULT_255_1_234
10
8.7992137
20
-0.6668567
11
8.7992137
21
-1.8419
0
LINE
8
DEFAULT_255_1_234
10
8.7992137
20
-1.8419
11
8.6498234
21
-1.8419
0
LINE
8
DEFAULT_255_1_234
10
8.6498234
20
-1.8419
11
8.6498234
21
-0.8515867
0
LINE
8
DEFAULT_255_1_234
10
8.6498234
20
-0.8515867
11
8.3502396
21
-0.9616215
0
LINE
8
DEFAULT_255_1_234
10
8.3502396
20
-0.9616215
11
8.3502396
21
-0.8266883
0
LINE
8
DEFAULT_255_1_234
10
8.3502396
20
-0.8266883
11
8.7759217
21
-0.6668567
0
LINE
8
DEFAULT_255_1_234
10
8.7759217
20
-0.6668567
11
8.7992137
21
-0.6668567
0
LINE
8
DEFAULT_255_1_234
10
10.0007618
20
-1.7206208
11
10.0007618
21
-1.8419
0
LINE
8
DEFAULT_255_1_234
10
10.0007618
20
-1.8419
11
9.2345339
21
-1.8419
0
LINE
8
DEFAULT_255_1_234
10
9.2345339
20
-1.8419
11
9.2345339
21
-1.7350779
0
LINE
8
DEFAULT_255_1_234
10
9.2345339
20
-1.7350779
11
9.6393335
21
-1.2853005
0
LINE
8
DEFAULT_255_1_234
10
9.3606322
20
-1.0170405
11
9.2120451
21
-1.0170405
0
LINE
8
DEFAULT_255_1_234
10
9.7268795
20
-1.3808782
11
9.4136417
21
-1.7206208
0
LINE
8
DEFAULT_255_1_234
10
9.4136417
20
-1.7206208
11
10.0007618
21
-1.7206208
0
ARC
8
DEFAULT_255_1_234
10
8.2903169
20
-0.0923473
40
1.8008286
50
318.5132453
51
320.7828378
0
ARC
8
DEFAULT_255_1_234
10
8.8190143
20
-0.5226574
40
1.1191493
50
320.7372736
51
323.9737074
0
ARC
8
DEFAULT_255_1_234
10
9.211
20
-0.8066639
40
0.6350923
50
323.8961724
51
328.6421089
0
ARC
8
DEFAULT_255_1_234
10
9.4156595
20
-0.9328969
40
0.3946393
50
328.8299013
51
331.789948
0
ARC
8
DEFAULT_255_1_234
10
9.5153774
20
-0.9843491
40
0.2824501
50
331.4255242
51
352.9364833
0
ARC
8
DEFAULT_255_1_234
10
9.5290274
20
-0.9874024
40
0.2685315
50
353.2248685
51
0.0169286
0
ARC
8
DEFAULT_255_1_234
10
9.5500151
20
-0.985105
40
0.2475536
50
359.4866256
51
15.9339782
0
ARC
8
DEFAULT_255_1_234
10
9.6007136
20
-0.9714714
40
0.1950618
50
16.1714718
51
43.5284424
0
ARC
8
DEFAULT_255_1_234
10
9.6084445
20
-0.9637427
40
0.184134
50
43.4415429
51
83.1661404
0
ARC
8
DEFAULT_255_1_234
10
9.5950363
20
-1.0374229
40
0.258926
50
82.160215
51
90.1505798
0
ARC
8
DEFAULT_255_1_234
10
9.591879
20
-1.0911135
40
0.3126255
50
89.5460705
51
102.5418777
0
ARC
8
DEFAULT_255_1_234
10
9.5675876
20
-0.9880335
40
0.2067346
50
102.1739365
51
129.2061916
0
ARC
8
DEFAULT_255_1_234
10
9.5596948
20
-0.9755906
40
0.1921118
50
129.7279328
51
135.7542026
0
ARC
8
DEFAULT_255_1_234
10
9.5718476
20
-0.9852955
40
0.2075944
50
136.175737
51
166.3674722
0
ARC
8
DEFAULT_255_1_234
10
9.6725395
20
-1.0122818
40
0.3118201
50
165.9092917
51
178.8683903
0
ARC
8
DEFAULT_255_1_234
10
9.7590256
20
-1.0169821
40
0.3983935
50
178.438168
51
180.0083905
0
ARC
8
DEFAULT_255_1_234
10
9.6188859
20
-1.0130769
40
0.4068601
50
163.2878735
51
180.5581814
0
ARC
8
DEFAULT_255_1_234
10
9.538712
20
-0.991016
40
0.3237344
50
133.454115
51
162.9470031
0
ARC
8
DEFAULT_255_1_234
10
9.5565661
20
-1.01
40
0.349795
50
100.7869394
51
133.4384016
0
ARC
8
DEFAULT_255_1_234
10
9.5913433
20
-1.1648681
40
0.5084616
50
89.6605301
51
101.3704185
0
ARC
8
DEFAULT_255_1_234
10
9.5979772
20
-1.1587504
40
0.502348
50
78.2171172
51
90.4130393
0
ARC
8
DEFAULT_255_1_234
10
9.633485
20
-0.9963363
40
0.3361092
50
55.9268222
51
78.4888551
0
ARC
8
DEFAULT_255_1_234
10
9.653129
20
-0.9624676
40
0.2970617
50
47.9292255
51
55.4054003
0
ARC
8
DEFAULT_255_1_234
10
9.6632851
20
-0.9521498
40
0.2825983
50
4.3347696
51
48.0560701
0
ARC
8
DEFAULT_255_1_234
10
9.5537244
20
-0.9691399
40
0.393225
50
359.925209
51
5.5967654
0
ARC
8
DEFAULT_255_1_234
10
9.5966136
20
-0.9635184
40
0.3503892
50
337.8914096
51
358.9967724
0
ARC
8
DEFAULT_255_1_234
10
9.3252548
20
-0.8588294
40
0.6412172
50
326.9135351
51
338.3505194
0
ARC
8
DEFAULT_255_1_234
10
8.9266852
20
-0.6033716
40
1.1146189
50
319.6472867
51
327.095818
0
ARC
8
DEFAULT_255_1_234
10
8.5433855
20
-0.2872
40
1.6114559
50
317.2586784
51
319.9046139
0
ENDSEC
0
EOF