0
SECTION
2
HEADER
9
$MEASUREMENT
70
1
0
ENDSEC
0
SECTION
2
TABLES
0
TABLE
2
LTYPE
0
LTYPE
72
65
70
64
2
CONTINUOUS
3
______
73
0
40
0
0
ENDTAB
0
TABLE
2
LAYER
0
LAYER
2
DEFAULT_255_2_778
70
0
62
255
6
CONTINUOUS
0
LAYER
2
DEFAULT_255_2_778_3
70
0
62
255
6
CONTINUOUS
0
LAYER
2
DEFAULT_255_1_234
70
0
62
255
6
CONTINUOUS
0
ENDTAB
0
ENDSEC
0
SECTION
2
ENTITIES
0
LINE
8
DEFAULT_255_2_778
10
5.1593333
20
5.1594166
11
4.6302333
21
5.1594166
0
LINE
8
DEFAULT_255_2_778
10
4.6302333
20
5.1594166
11
4.6302333
21
2.5136166
0
LINE
8
DEFAULT_255_2_778
10
4.6302333
20
2.5136166
11
4.1010333
21
2.5136166
0
LINE
8
DEFAULT_255_2_778_3
10
10.7155918
20
3.8365
11
4.6301918
21
3.8365
0
LINE
8
DEFAULT_255_2_778
10
6.0854125
20
6.4823458
11
8.0698125
21
3.1750458
0
LINE
8
DEFAULT_255_2_778_3
10
8.0698125
20
3.1750458
11
10.0542125
21
6.4823458
0
LINE
8
DEFAULT_255_2_778_3
10
8.0698
20
5.1594583
11
8.0698
21
3.8365583
0
LINE
8
DEFAULT_255_2_778_3
10
12.5677
20
5.1594583
11
12.5677
21
3.8365583
0
LINE
8
DEFAULT_255_2_778
10
14.4197417
20
3.8364583
11
13.7583417
21
2.5135583
0
LINE
8
DEFAULT_255_2_778
10
13.7583417
20
2.5135583
11
13.0968417
21
3.8364583
0
LINE
8
DEFAULT_255_2_778_3
10
14.4198209
20
3.8365
11
16.6688209
21
3.8365
0
LINE
8
DEFAULT_255_2_778
10
12.0385417
20
3.8364583
11
11.3771417
21
2.5135583
0
LINE
8
DEFAULT_255_2_778
10
11.3771417
20
2.5135583
11
10.7156417
21
3.8364583
0
LINE
8
DEFAULT_255_2_778_3
10
12.0385333
20
3.8365
11
13.0968333
21
3.8365
0
LINE
8
DEFAULT_255_2_778
10
17.3302
20
10.4510749
11
17.3302
21
6.4823749
0
LINE
8
DEFAULT_255_2_778
10
16.0072417
20
6.4823082
11
17.3301417
21
1.1906082
0
LINE
8
DEFAULT_255_2_778
10
17.3301417
20
1.1906082
11
17.3301417
21
-2.7780918
0
LINE
8
DEFAULT_255_1_234
10
13.8258137
20
9.3370433
11
13.8258137
21
8.162
0
LINE
8
DEFAULT_255_1_234
10
13.8258137
20
8.162
11
13.6764234
21
8.162
0
LINE
8
DEFAULT_255_1_234
10
13.6764234
20
8.162
11
13.6764234
21
9.1523133
0
LINE
8
DEFAULT_255_1_234
10
13.6764234
20
9.1523133
11
13.3768396
21
9.0422785
0
LINE
8
DEFAULT_255_1_234
10
13.3768396
20
9.0422785
11
13.3768396
21
9.1772117
0
LINE
8
DEFAULT_255_1_234
10
13.3768396
20
9.1772117
11
13.8025217
21
9.3370433
0
LINE
8
DEFAULT_255_1_234
10
13.8025217
20
9.3370433
11
13.8258137
21
9.3370433
0
LINE
8
DEFAULT_255_1_234
10
14.4771877
20
8.6977169
11
14.4771877
21
8.8189962
0
LINE
8
DEFAULT_255_1_234
10
14.4771877
20
8.8189962
11
14.5888289
21
8.8189962
0
LINE
8
DEFAULT_255_1_234
10
14.3984767
20
9.0246087
11
14.2498895
21
9.0246087
0
LINE
8
DEFAULT_255_1_234
10
14.2394482
20
8.4704188
11
14.3888386
21
8.4704188
0
LINE
8
DEFAULT_255_1_234
10
14.5888289
20
8.6977169
11
14.4771877
21
8.6977169
0
ARC
8
DEFAULT_255_1_234
10
14.5859155
20
9.1582713
40
0.3392876
50
270.4919872
51
281.8951556
0
ARC
8
DEFAULT_255_1_234
10
14.6100417
20
9.0480702
40
0.2264817
50
281.6691735
51
301.2943132
0
ARC
8
DEFAULT_255_1_234
10
14.6270627
20
9.0169304
40
0.1910381
50
301.7833094
51
311.7545298
0
ARC
8
DEFAULT_255_1_234
10
14.6362203
20
9.0067748
40
0.1773635
50
311.7323931
51
354.2802411
0
ARC
8
DEFAULT_255_1_234
10
14.5635828
20
9.0192722
40
0.2509385
50
353.0937916
51
0.1181479
0
ARC
8
DEFAULT_255_1_234
10
14.5174613
20
9.0240386
40
0.2970898
50
359.1805295
51
15.0453146
0
ARC
8
DEFAULT_255_1_234
10
14.652045
20
9.0632992
40
0.1569564
50
13.9577229
51
77.6713066
0
ARC
8
DEFAULT_255_1_234
10
14.6133979
20
8.9247949
40
0.3006298
50
76.1116566
51
90.7026153
0
ARC
8
DEFAULT_255_1_234
10
14.6074817
20
8.9521545
40
0.2732568
50
89.5324876
51
103.531937
0
ARC
8
DEFAULT_255_1_234
10
14.5874261
20
9.0320884
40
0.1908508
50
103.2931773
51
133.5619022
0
ARC
8
DEFAULT_255_1_234
10
14.582975
20
9.0380375
40
0.1834746
50
133.8349307
51
173.5344437
0
ARC
8
DEFAULT_255_1_234
10
14.6552793
20
9.0252213
40
0.2568033
50
172.5096846
51
180.1366907
0
ARC
8
DEFAULT_255_1_234
10
14.5601687
20
9.0286622
40
0.3103056
50
155.3484492
51
180.7484736
0
ARC
8
DEFAULT_255_1_234
10
14.5552776
20
9.0257846
40
0.3070957
50
131.5744599
51
154.4798489
0
ARC
8
DEFAULT_255_1_234
10
14.5865923
20
8.994131
40
0.3515643
50
96.9875458
51
131.9690667
0
ARC
8
DEFAULT_255_1_234
10
14.6085403
20
8.8695636
40
0.4779224
50
89.8596053
51
97.7825159
0
ARC
8
DEFAULT_255_1_234
10
14.6133466
20
8.8433616
40
0.5041361
50
78.3655447
51
90.4131539
0
ARC
8
DEFAULT_255_1_234
10
14.6491384
20
9.0092887
40
0.3344039
50
56.6229102
51
78.638727
0
ARC
8
DEFAULT_255_1_234
10
14.6706328
20
9.0468805
40
0.2912001
50
47.0253525
51
56.0854072
0
ARC
8
DEFAULT_255_1_234
10
14.6726108
20
9.0508223
40
0.2869704
50
10.9208013
51
46.7778124
0
ARC
8
DEFAULT_255_1_234
10
14.5362174
20
9.0192857
40
0.426899
50
359.6364486
51
11.6087304
0
ARC
8
DEFAULT_255_1_234
10
14.7197018
20
9.0177752
40
0.243409
50
332.3549906
51
359.7179418
0
ARC
8
DEFAULT_255_1_234
10
14.654662
20
9.0486142
40
0.3153459
50
325.2333722
51
332.8745602
0
ARC
8
DEFAULT_255_1_234
10
14.6699244
20
9.0379828
40
0.2967456
50
292.9802137
51
325.2392345
0
ARC
8
DEFAULT_255_1_234
10
14.6424617
20
9.0913863
40
0.3566604
50
292.5402179
51
293.6924929
0
ARC
8
DEFAULT_255_1_234
10
14.6817213
20
8.4459091
40
0.3307468
50
57.6435486
51
72.8625112
0
ARC
8
DEFAULT_255_1_234
10
14.7171713
20
8.5033549
40
0.2632492
50
36.7248896
51
57.4697979
0
ARC
8
DEFAULT_255_1_234
10
14.7160346
20
8.504622
40
0.2634081
50
8.0545065
51
36.356114
0
ARC
8
DEFAULT_255_1_234
10
14.6297531
20
8.4891174
40
0.3510261
50
359.8320645
51
8.5869982
0
ARC
8
DEFAULT_255_1_234
10
14.5922307
20
8.4843101
40
0.3885653
50
343.9829931
51
0.5571613
0
ARC
8
DEFAULT_255_1_234
10
14.6808504
20
8.4600438
40
0.2966924
50
311.6359546
51
343.7651759
0
ARC
8
DEFAULT_255_1_234
10
14.6430074
20
8.5027102
40
0.3537231
50
279.7829875
51
311.6255694
0
ARC
8
DEFAULT_255_1_234
10
14.612885
20
8.646428
40
0.5004971
50
269.7286406
51
280.3856417
0
ARC
8
DEFAULT_255_1_234
10
14.6066922
20
8.6422996
40
0.4963778
50
256.6828919
51
270.4412052
0
ARC
8
DEFAULT_255_1_234
10
14.5728218
20
8.5038394
40
0.3538406
50
229.4223008
51
256.8556159
0
ARC
8
DEFAULT_255_1_234
10
14.5313611
20
8.4571736
40
0.2914296
50
181.818294
51
229.6455059
0
ARC
8
DEFAULT_255_1_234
10
14.6353567
20
8.4702496
40
0.3959084
50
179.9755256
51
183.2323064
0
ARC
8
DEFAULT_255_1_234
10
14.6181313
20
8.4682037
40
0.2293034
50
179.4465117
51
196.2869258
0
ARC
8
DEFAULT_255_1_234
10
14.5693721
20
8.4548651
40
0.1787621
50
196.5661473
51
227.705904
0
ARC
8
DEFAULT_255_1_234
10
14.5857816
20
8.4732155
40
0.2033784
50
227.7652068
51
257.8762805
0
ARC
8
DEFAULT_255_1_234
10
14.6082786
20
8.5675156
40
0.3003081
50
257.4584385
51
270.426602
0
ARC
8
DEFAULT_255_1_234
10
14.6128352
20
8.5964996
40
0.329292
50
269.5962073
51
280.8789248
0
ARC
8
DEFAULT_255_1_234
10
14.6357881
20
8.4818685
40
0.2123908
50
280.6346389
51
299.8595945
0
ARC
8
DEFAULT_255_1_234
10
14.6548788
20
8.4456212
40
0.171457
50
300.3576302
51
314.5517981
0
ARC
8
DEFAULT_255_1_234
10
14.6465848
20
8.4516919
40
0.1816095
50
315.0728369
51
345.0431014
0
ARC
8
DEFAULT_255_1_234
10
14.5542662
20
8.4785841
40
0.2777492
50
344.5986631
51
357.9269593
0
ARC
8
DEFAULT_255_1_234
10
14.4646989
20
8.4847276
40
0.3674917
50
357.4748886
51
0.0231117
0
ARC
8
DEFAULT_255_1_234
10
14.5670098
20
8.4871679
40
0.2651907
50
359.5047933
51
13.4239635
0
ARC
8
DEFAULT_255_1_234
10
14.6536741
20
8.5093478
40
0.1757509
50
12.9498199
51
48.7551375
0
ARC
8
DEFAULT_255_1_234
10
14.6354475
20
8.48444
40
0.2065134
50
49.5088623
51
72.1836453
0
ARC
8
DEFAULT_255_1_234
10
14.5996628
20
8.3782291
40
0.3185836
50
71.9010081
51
84.3554254
0
ARC
8
DEFAULT_255_1_234
10
14.583526
20
8.2421326
40
0.4556151
50
84.0193428
51
89.333121
0
LINE
8
DEFAULT_255_1_234
10
13.7199137
20
-0.6668567
11
13.7199137
21
-1.8419
0
LINE
8
DEFAULT_255_1_234
10
13.7199137
20
-1.8419
11
13.5705234
21
-1.8419
0
LINE
8
DEFAULT_255_1_234
10
13.5705234
20
-1.8419
11
13.5705234
21
-0.8515867
0
LINE
8
DEFAULT_255_1_234
10
13.5705234
20
-0.8515867
11
13.2709396
21
-0.9616215
0
LINE
8
DEFAULT_255_1_234
10
13.2709396
20
-0.9616215
11
13.2709396
21
-0.8266883
0
LINE
8
DEFAULT_255_1_234
10
13.2709396
20
-0.8266883
11
13.6966217
21
-0.6668567
0
LINE
8
DEFAULT_255_1_234
10
13.6966217
20
-0.6668567
11
13.7199137
21
-0.6668567
0
LINE
8
DEFAULT_255_1_234
10
14.7825127
20
-0.6724789
11
14.7825127
21
-1.449148
0
LINE
8
DEFAULT_255_1_234
10
14.7825127
20
-1.449148
11
14.9447538
21
-1.449148
0
LINE
8
DEFAULT_255_1_234
10
14.9447538
20
-1.449148
11
14.9447538
21
-1.5704272
0
LINE
8
DEFAULT_255_1_234
10
14.9447538
20
-1.5704272
11
14.7825127
21
-1.5704272
0
LINE
8
DEFAULT_255_1_234
10
14.7825127
20
-1.5704272
11
14.7825127
21
-1.8419
0
LINE
8
DEFAULT_255_1_234
10
14.7825127
20
-1.8419
11
14.6331224
21
-1.8419
0
LINE
8
DEFAULT_255_1_234
10
14.6331224
20
-1.8419
11
14.6331224
21
-1.5704272
0
LINE
8
DEFAULT_255_1_234
10
14.6331224
20
-1.5704272
11
14.1006181
21
-1.5704272
0
LINE
8
DEFAULT_255_1_234
10
14.1006181
20
-1.5704272
11
14.1006181
21
-1.4828813
0
LINE
8
DEFAULT_255_1_234
10
14.1006181
20
-1.4828813
11
14.6242875
21
-0.6724789
0
LINE
8
DEFAULT_255_1_234
10
14.6242875
20
-0.6724789
11
14.7825127
21
-0.6724789
0
LINE
8
DEFAULT_255_1_234
10
14.6154525
20
-0.9078088
11
14.2692846
21
-1.449148
0
LINE
8
DEFAULT_255_1_234
10
14.2692846
20
-1.449148
11
14.6331224
21
-1.449148
0
LINE
8
DEFAULT_255_1_234
10
14.6331224
20
-1.449148
11
14.6331224
21
-0.8756819
0
LINE
8
DEFAULT_255_1_234
10
14.6331224
20
-0.8756819
11
14.6154525
21
-0.9078088
0
ENDSEC
0
EOF