0
SECTION
2
HEADER
9
$MEASUREMENT
70
1
0
ENDSEC
0
SECTION
2
TABLES
0
TABLE
2
LTYPE
0
LTYPE
72
65
70
64
2
CONTINUOUS
3
______
73
0
40
0
0
ENDTAB
0
TABLE
2
LAYER
0
LAYER
2
DEFAULT_255_2_778
70
0
62
255
6
CONTINUOUS
0
LAYER
2
DEFAULT_255_1_234
70
0
62
255
6
CONTINUOUS
0
ENDTAB
0
ENDSEC
0
SECTION
2
ENTITIES
0
LINE
8
DEFAULT_255_2_778
10
17.8588417
20
10.451
11
16.5359417
21
10.451
0
LINE
8
DEFAULT_255_2_778
10
3.3067169
20
17.0655831
11
16.5359169
21
17.0655831
0
LINE
8
DEFAULT_255_2_778
10
16.5359169
20
17.0655831
11
16.5359169
21
3.8363831
0
LINE
8
DEFAULT_255_2_778
10
16.5359169
20
3.8363831
11
3.3067169
21
3.8363831
0
LINE
8
DEFAULT_255_2_778
10
3.3067169
20
3.8363831
11
3.3067169
21
17.0655831
0
LINE
8
DEFAULT_255_2_778
10
9.9213
20
18.3885583
11
9.9213
21
17.0656583
0
ARC
8
DEFAULT_255_2_778
10
9.9198557
20
17.0670443
40
0.6600157
50
89.871003
51
180.128997
0
ARC
8
DEFAULT_255_2_778
10
9.922749
20
17.0670655
40
0.6599943
50
359.8691577
51
90.1221758
0
ARC
8
DEFAULT_255_2_778
10
9.9227705
20
17.0641295
40
0.6599728
50
269.8759594
51
0.1240406
0
ARC
8
DEFAULT_255_2_778
10
9.9198345
20
17.0641508
40
0.6599942
50
179.8778094
51
270.1308423
0
LINE
8
DEFAULT_255_2_778
10
9.2598417
20
17.0655583
11
9.2598417
21
17.0655583
0
LINE
8
DEFAULT_255_2_778
10
9.9213
20
2.5135583
11
9.9213
21
3.8364583
0
ARC
8
DEFAULT_255_2_778
10
9.9198557
20
3.8378443
40
0.6600157
50
89.871003
51
180.128997
0
ARC
8
DEFAULT_255_2_778
10
9.922749
20
3.8378655
40
0.6599943
50
359.8691577
51
90.1221758
0
ARC
8
DEFAULT_255_2_778
10
9.9227705
20
3.8349295
40
0.6599728
50
269.8759594
51
0.1240406
0
ARC
8
DEFAULT_255_2_778
10
9.9198345
20
3.8349508
40
0.6599942
50
179.8778094
51
270.1308423
0
LINE
8
DEFAULT_255_2_778
10
9.2598417
20
3.8363583
11
9.2598417
21
3.8363583
0
LINE
8
DEFAULT_255_2_778
10
13.6255
20
9.1280583
11
13.6255
21
7.8051583
0
LINE
8
DEFAULT_255_2_778
10
13.6255167
20
4.8948083
11
13.6255167
21
6.2177083
0
LINE
8
DEFAULT_255_2_778
10
13.6255167
20
6.2177083
11
13.0963167
21
7.8052083
0
LINE
8
DEFAULT_255_2_778
10
23.1505667
20
10.451
11
17.1984667
21
10.451
0
ARC
8
DEFAULT_255_2_778
10
16.5344557
20
10.4524443
40
0.6600157
50
89.871003
51
180.128997
0
ARC
8
DEFAULT_255_2_778
10
16.537349
20
10.4524655
40
0.6599943
50
359.8691577
51
90.1221758
0
ARC
8
DEFAULT_255_2_778
10
16.5373705
20
10.4495295
40
0.6599728
50
269.8759594
51
0.1240406
0
ARC
8
DEFAULT_255_2_778
10
16.5344345
20
10.4495508
40
0.6599942
50
179.8778094
51
270.1308423
0
LINE
8
DEFAULT_255_2_778
10
15.8744417
20
10.4509583
11
15.8744417
21
10.4509583
0
LINE
8
DEFAULT_255_2_778
10
4.62965
20
7.0114
11
6.21715
21
7.0114
0
LINE
8
DEFAULT_255_2_778
10
6.2172
20
8.0697333
11
6.2172
21
5.9530333
0
LINE
8
DEFAULT_255_2_778
10
7.0109
20
8.0697333
11
7.0109
21
5.9530333
0
LINE
8
DEFAULT_255_2_778
10
7.01095
20
7.0114
11
8.59845
21
7.0114
0
LINE
8
DEFAULT_255_2_778
10
5.9526
20
14.948925
11
5.9526
21
12.567725
0
LINE
8
DEFAULT_255_2_778
10
7.2755
20
12.567725
11
7.2755
21
14.948925
0
LINE
8
DEFAULT_255_2_778
10
6.6141167
20
15.6103833
11
8.4662167
21
13.7582833
0
LINE
8
DEFAULT_255_2_778
10
8.4662167
20
13.7582833
11
6.6141167
21
11.9061833
0
LINE
8
DEFAULT_255_2_778
10
6.6141167
20
11.9061833
11
4.7620167
21
13.7582833
0
LINE
8
DEFAULT_255_2_778
10
4.7620167
20
13.7582833
11
6.6141167
21
15.6103833
0
LINE
8
DEFAULT_255_2_778
10
9.9213
20
23.6801624
11
9.9213
21
17.7270624
0
LINE
8
DEFAULT_255_2_778
10
9.9213
20
-2.7781376
11
9.9213
21
3.1749624
0
LINE
8
DEFAULT_255_2_778
10
14.5515438
20
12.4353104
11
14.1546438
21
12.8322104
0
LINE
8
DEFAULT_255_2_778
10
14.1546438
20
12.8322104
11
13.9562438
21
12.3692104
0
LINE
8
DEFAULT_255_2_778
10
13.9562438
20
12.3692104
11
14.5515438
21
12.4353104
0
LINE
8
DEFAULT_255_2_778
10
12.5672
20
15.0812166
11
12.5672
21
12.4354166
0
LINE
8
DEFAULT_255_2_778
10
11.9056708
20
13.7583
11
12.5671708
21
13.7583
0
LINE
8
DEFAULT_255_2_778
10
12.5672125
20
14.4197292
11
14.5516125
21
15.0812292
0
LINE
8
DEFAULT_255_2_778
10
12.5672125
20
13.0968292
11
14.5516125
21
12.4353292
0
LINE
8
DEFAULT_255_1_234
10
6.1169392
20
21.9706
11
5.7113364
21
21.9706
0
LINE
8
DEFAULT_255_1_234
10
5.7113364
20
21.9706
11
5.7113364
21
23.1400211
0
LINE
8
DEFAULT_255_1_234
10
5.7113364
20
23.1400211
11
6.0936471
21
23.1400211
0
LINE
8
DEFAULT_255_1_234
10
6.1225614
20
22.5175614
11
5.8655458
21
22.5175614
0
LINE
8
DEFAULT_255_1_234
10
5.8655458
20
22.5175614
11
5.8655458
21
22.0966983
0
LINE
8
DEFAULT_255_1_234
10
5.8655458
20
22.0966983
11
6.1201519
21
22.0966983
0
LINE
8
DEFAULT_255_1_234
10
5.8655458
20
23.0131196
11
5.8655458
21
22.6412501
0
LINE
8
DEFAULT_255_1_234
10
5.8655458
20
22.6412501
11
6.0984662
21
22.6412501
0
LINE
8
DEFAULT_255_1_234
10
6.0936471
20
23.0131196
11
5.8655458
21
23.0131196
0
ARC
8
DEFAULT_255_1_234
10
6.097418
20
22.4032901
40
0.7367406
50
82.1257326
51
90.2932599
0
ARC
8
DEFAULT_255_1_234
10
6.1363135
20
22.6751013
40
0.4621653
50
69.9044149
51
82.2857423
0
ARC
8
DEFAULT_255_1_234
10
6.1933813
20
22.8293637
40
0.2976871
50
51.1838526
51
70.0181538
0
ARC
8
DEFAULT_255_1_234
10
6.2188779
20
22.866424
40
0.2528517
50
12.1017251
51
50.4214761
0
ARC
8
DEFAULT_255_1_234
10
6.0804653
20
22.8316676
40
0.3955061
50
359.5251267
51
12.8211707
0
ARC
8
DEFAULT_255_1_234
10
6.2384579
20
22.8247344
40
0.2375281
50
323.4908128
51
0.8817314
0
ARC
8
DEFAULT_255_1_234
10
6.1966266
20
22.857055
40
0.2903817
50
298.6825083
51
323.2756573
0
ARC
8
DEFAULT_255_1_234
10
6.1604629
20
22.9171649
40
0.3604842
50
293.1999386
51
299.1396394
0
ARC
8
DEFAULT_255_1_234
10
6.2277602
20
22.3086126
40
0.2871098
50
54.0011765
51
74.9167975
0
ARC
8
DEFAULT_255_1_234
10
6.2393961
20
22.3283332
40
0.2643248
50
36.3580696
51
53.5291921
0
ARC
8
DEFAULT_255_1_234
10
6.2267203
20
22.3192998
40
0.2798884
50
4.8189881
51
36.3089977
0
ARC
8
DEFAULT_255_1_234
10
6.1488038
20
22.308327
40
0.358478
50
359.9370252
51
5.5204067
0
ARC
8
DEFAULT_255_1_234
10
6.116356
20
22.3042667
40
0.3909429
50
344.7478609
51
0.5373281
0
ARC
8
DEFAULT_255_1_234
10
6.2154531
20
22.2775544
40
0.2883093
50
311.1786488
51
344.6886812
0
ARC
8
DEFAULT_255_1_234
10
6.1862578
20
22.3138987
40
0.3348923
50
286.0418249
51
310.8441291
0
ARC
8
DEFAULT_255_1_234
10
6.135541
20
22.4785807
40
0.5071869
50
274.1042341
51
286.4071509
0
ARC
8
DEFAULT_255_1_234
10
6.1178666
20
22.6669229
40
0.6963234
50
269.9236873
51
274.445647
0
ARC
8
DEFAULT_255_1_234
10
6.1224667
20
22.4329537
40
0.3362634
50
269.6055768
51
281.3740047
0
ARC
8
DEFAULT_255_1_234
10
6.1455305
20
22.3236353
40
0.224546
50
281.1055983
51
302.5132223
0
ARC
8
DEFAULT_255_1_234
10
6.1602204
20
22.2972823
40
0.1944357
50
303.0368945
51
311.8811219
0
ARC
8
DEFAULT_255_1_234
10
6.1673611
20
22.288789
40
0.1833454
50
311.9916004
51
351.7143462
0
ARC
8
DEFAULT_255_1_234
10
6.0856841
20
22.305293
40
0.2665871
50
350.7339597
51
0.2221581
0
ARC
8
DEFAULT_255_1_234
10
6.0749287
20
22.3109467
40
0.2773789
50
359.0456241
51
17.2296242
0
ARC
8
DEFAULT_255_1_234
10
6.1788404
20
22.3418163
40
0.1689915
50
17.6685481
51
78.9940892
0
ARC
8
DEFAULT_255_1_234
10
6.1271568
20
22.1563224
40
0.3612658
50
76.5635957
51
90.6980921
0
LINE
8
DEFAULT_255_1_234
10
6.1227552
20
22.5175613
11
6.1225614
21
22.5175614
0
ARC
8
DEFAULT_255_1_234
10
6.1007228
20
22.9698036
40
0.3285612
50
269.6064736
51
281.4533503
0
ARC
8
DEFAULT_255_1_234
10
6.1230048
20
22.8646688
40
0.2210975
50
281.2041486
51
302.5148063
0
ARC
8
DEFAULT_255_1_234
10
6.1366898
20
22.8400241
40
0.1929674
50
303.021671
51
309.8369575
0
ARC
8
DEFAULT_255_1_234
10
6.1550359
20
22.8194488
40
0.1654181
50
309.5228395
51
356.9509836
0
ARC
8
DEFAULT_255_1_234
10
6.0886942
20
22.8289932
40
0.2322512
50
355.4701227
51
0.0492546
0
ARC
8
DEFAULT_255_1_234
10
6.0608033
20
22.8312094
40
0.2601498
50
359.5558597
51
11.2096359
0
ARC
8
DEFAULT_255_1_234
10
6.1565323
20
22.851023
40
0.1623975
50
10.9182341
51
31.3230275
0
ARC
8
DEFAULT_255_1_234
10
6.1851056
20
22.8669214
40
0.1297302
50
31.8852677
51
52.1412565
0
ARC
8
DEFAULT_255_1_234
10
6.1576789
20
22.828175
40
0.1771663
50
52.8285564
51
71.9850297
0
ARC
8
DEFAULT_255_1_234
10
6.1200965
20
22.7175664
40
0.2939794
50
71.6863486
51
82.8455995
0
ARC
8
DEFAULT_255_1_234
10
6.0961501
20
22.5366149
40
0.476506
50
82.6984714
51
90.1729175
0
ARC
8
DEFAULT_255_1_234
10
6.0939136
20
22.6589623
40
0.3541573
50
89.8708275
51
90.0431131
0
LINE
8
DEFAULT_255_1_234
10
7.4180808
20
21.9706
11
7.1642778
21
22.4436694
0
LINE
8
DEFAULT_255_1_234
10
7.1642778
20
22.4436694
11
6.8895924
21
22.4436694
0
LINE
8
DEFAULT_255_1_234
10
6.8895924
20
22.4436694
11
6.8895924
21
21.9706
0
LINE
8
DEFAULT_255_1_234
10
6.8895924
20
21.9706
11
6.7345798
21
21.9706
0
LINE
8
DEFAULT_255_1_234
10
6.7345798
20
21.9706
11
6.7345798
21
23.1400211
0
LINE
8
DEFAULT_255_1_234
10
6.7345798
20
23.1400211
11
7.1217096
21
23.1400211
0
LINE
8
DEFAULT_255_1_234
10
7.3088491
20
22.4765995
11
7.5835346
21
21.9802381
0
LINE
8
DEFAULT_255_1_234
10
7.5835346
20
21.9802381
11
7.5835346
21
21.9706
0
LINE
8
DEFAULT_255_1_234
10
7.5835346
20
21.9706
11
7.4180808
21
21.9706
0
LINE
8
DEFAULT_255_1_234
10
6.8895924
20
23.0131196
11
6.8895924
21
22.5697677
0
LINE
8
DEFAULT_255_1_234
10
6.8895924
20
22.5697677
11
7.1265287
21
22.5697677
0
LINE
8
DEFAULT_255_1_234
10
7.1257255
20
23.0131196
11
6.8895924
21
23.0131196
0
ARC
8
DEFAULT_255_1_234
10
7.1258736
20
22.4438761
40
0.6961575
50
80.653586
51
90.3427061
0
ARC
8
DEFAULT_255_1_234
10
7.167821
20
22.6901348
40
0.4463577
50
65.6987447
51
80.8329603
0
ARC
8
DEFAULT_255_1_234
10
7.2155851
20
22.7996322
40
0.3269094
50
50.0017161
51
65.4305835
0
ARC
8
DEFAULT_255_1_234
10
7.2374315
20
22.8291482
40
0.2902647
50
11.628416
51
49.5603263
0
ARC
8
DEFAULT_255_1_234
10
7.0838651
20
22.7916299
40
0.4482792
50
359.5655735
51
12.3691
0
ARC
8
DEFAULT_255_1_234
10
7.1915511
20
22.7853644
40
0.3405924
50
341.9983148
51
0.4822259
0
ARC
8
DEFAULT_255_1_234
10
7.2310351
20
22.7746471
40
0.2997359
50
323.8609373
51
341.61416
0
ARC
8
DEFAULT_255_1_234
10
7.2008595
20
22.7979484
40
0.3378487
50
296.7018614
51
323.6876402
0
ARC
8
DEFAULT_255_1_234
10
7.1567491
20
22.8768235
40
0.4281516
50
290.8086567
51
297.2323311
0
ARC
8
DEFAULT_255_1_234
10
7.129102
20
22.9291351
40
0.3593766
50
269.589728
51
281.8058135
0
ARC
8
DEFAULT_255_1_234
10
7.1541919
20
22.8143743
40
0.2419125
50
281.5501019
51
303.9357432
0
ARC
8
DEFAULT_255_1_234
10
7.1679107
20
22.7905936
40
0.2145323
50
304.4415616
51
311.2106213
0
ARC
8
DEFAULT_255_1_234
10
7.1811212
20
22.7766632
40
0.1953505
50
310.9875673
51
356.2715578
0
ARC
8
DEFAULT_255_1_234
10
7.1054861
20
22.7879422
40
0.2716331
50
354.9348262
51
0.0609027
0
ARC
8
DEFAULT_255_1_234
10
7.0867735
20
22.7906435
40
0.2903554
50
359.5239371
51
12.8808918
0
ARC
8
DEFAULT_255_1_234
10
7.1845291
20
22.8145728
40
0.1897315
50
12.4173452
51
43.1022135
0
ARC
8
DEFAULT_255_1_234
10
7.1906895
20
22.8182724
40
0.1827118
50
43.5751728
51
48.203944
0
ARC
8
DEFAULT_255_1_234
10
7.1737387
20
22.7961302
40
0.2105272
50
48.7809703
51
72.6969569
0
ARC
8
DEFAULT_255_1_234
10
7.1383012
20
22.688582
40
0.3237537
50
72.3702241
51
84.8791103
0
ARC
8
DEFAULT_255_1_234
10
7.1235488
20
22.5543769
40
0.4587478
50
84.5400526
51
89.7281406
0
LINE
8
DEFAULT_255_1_234
10
20.6596392
20
11.3872
11
20.2540364
21
11.3872
0
LINE
8
DEFAULT_255_1_234
10
20.2540364
20
11.3872
11
20.2540364
21
12.5566211
0
LINE
8
DEFAULT_255_1_234
10
20.2540364
20
12.5566211
11
20.6363471
21
12.5566211
0
LINE
8
DEFAULT_255_1_234
10
20.6652614
20
11.9341614
11
20.4082458
21
11.9341614
0
LINE
8
DEFAULT_255_1_234
10
20.4082458
20
11.9341614
11
20.4082458
21
11.5132983
0
LINE
8
DEFAULT_255_1_234
10
20.4082458
20
11.5132983
11
20.6628519
21
11.5132983
0
LINE
8
DEFAULT_255_1_234
10
20.4082458
20
12.4297196
11
20.4082458
21
12.0578501
0
LINE
8
DEFAULT_255_1_234
10
20.4082458
20
12.0578501
11
20.6411662
21
12.0578501
0
LINE
8
DEFAULT_255_1_234
10
20.6363471
20
12.4297196
11
20.4082458
21
12.4297196
0
ARC
8
DEFAULT_255_1_234
10
20.640118
20
11.8198901
40
0.7367406
50
82.1257326
51
90.2932599
0
ARC
8
DEFAULT_255_1_234
10
20.6790135
20
12.0917013
40
0.4621653
50
69.9044149
51
82.2857423
0
ARC
8
DEFAULT_255_1_234
10
20.7360813
20
12.2459637
40
0.2976871
50
51.1838526
51
70.0181538
0
ARC
8
DEFAULT_255_1_234
10
20.7615779
20
12.283024
40
0.2528517
50
12.1017251
51
50.4214761
0
ARC
8
DEFAULT_255_1_234
10
20.6231653
20
12.2482676
40
0.3955061
50
359.5251267
51
12.8211707
0
ARC
8
DEFAULT_255_1_234
10
20.7811579
20
12.2413344
40
0.2375281
50
323.4908128
51
0.8817314
0
ARC
8
DEFAULT_255_1_234
10
20.7393266
20
12.273655
40
0.2903817
50
298.6825083
51
323.2756573
0
ARC
8
DEFAULT_255_1_234
10
20.7031629
20
12.3337649
40
0.3604842
50
293.1999386
51
299.1396394
0
ARC
8
DEFAULT_255_1_234
10
20.7704602
20
11.7252126
40
0.2871098
50
54.0011765
51
74.9167975
0
ARC
8
DEFAULT_255_1_234
10
20.7820961
20
11.7449332
40
0.2643248
50
36.3580696
51
53.5291921
0
ARC
8
DEFAULT_255_1_234
10
20.7694203
20
11.7358998
40
0.2798884
50
4.8189881
51
36.3089977
0
ARC
8
DEFAULT_255_1_234
10
20.6915038
20
11.724927
40
0.358478
50
359.9370252
51
5.5204067
0
ARC
8
DEFAULT_255_1_234
10
20.659056
20
11.7208667
40
0.3909429
50
344.7478609
51
0.5373281
0
ARC
8
DEFAULT_255_1_234
10
20.7581531
20
11.6941544
40
0.2883093
50
311.1786488
51
344.6886812
0
ARC
8
DEFAULT_255_1_234
10
20.7289578
20
11.7304987
40
0.3348923
50
286.0418249
51
310.8441291
0
ARC
8
DEFAULT_255_1_234
10
20.678241
20
11.8951807
40
0.5071869
50
274.1042341
51
286.4071509
0
ARC
8
DEFAULT_255_1_234
10
20.6605666
20
12.0835229
40
0.6963234
50
269.9236873
51
274.445647
0
ARC
8
DEFAULT_255_1_234
10
20.6651667
20
11.8495537
40
0.3362634
50
269.6055768
51
281.3740047
0
ARC
8
DEFAULT_255_1_234
10
20.6882305
20
11.7402353
40
0.224546
50
281.1055983
51
302.5132223
0
ARC
8
DEFAULT_255_1_234
10
20.7029204
20
11.7138823
40
0.1944357
50
303.0368945
51
311.8811219
0
ARC
8
DEFAULT_255_1_234
10
20.7100611
20
11.705389
40
0.1833454
50
311.9916004
51
351.7143462
0
ARC
8
DEFAULT_255_1_234
10
20.6283841
20
11.721893
40
0.2665871
50
350.7339597
51
0.2221581
0
ARC
8
DEFAULT_255_1_234
10
20.6176287
20
11.7275467
40
0.2773789
50
359.0456241
51
17.2296242
0
ARC
8
DEFAULT_255_1_234
10
20.7215404
20
11.7584163
40
0.1689915
50
17.6685481
51
78.9940892
0
ARC
8
DEFAULT_255_1_234
10
20.6698568
20
11.5729224
40
0.3612658
50
76.5635957
51
90.6980921
0
LINE
8
DEFAULT_255_1_234
10
20.6654552
20
11.9341613
11
20.6652614
21
11.9341614
0
ARC
8
DEFAULT_255_1_234
10
20.6434228
20
12.3864036
40
0.3285612
50
269.6064736
51
281.4533503
0
ARC
8
DEFAULT_255_1_234
10
20.6657048
20
12.2812688
40
0.2210975
50
281.2041486
51
302.5148063
0
ARC
8
DEFAULT_255_1_234
10
20.6793898
20
12.2566241
40
0.1929674
50
303.021671
51
309.8369575
0
ARC
8
DEFAULT_255_1_234
10
20.6977359
20
12.2360488
40
0.1654181
50
309.5228395
51
356.9509836
0
ARC
8
DEFAULT_255_1_234
10
20.6313942
20
12.2455932
40
0.2322512
50
355.4701227
51
0.0492546
0
ARC
8
DEFAULT_255_1_234
10
20.6035033
20
12.2478094
40
0.2601498
50
359.5558597
51
11.2096359
0
ARC
8
DEFAULT_255_1_234
10
20.6992323
20
12.267623
40
0.1623975
50
10.9182341
51
31.3230275
0
ARC
8
DEFAULT_255_1_234
10
20.7278056
20
12.2835214
40
0.1297302
50
31.8852677
51
52.1412565
0
ARC
8
DEFAULT_255_1_234
10
20.7003789
20
12.244775
40
0.1771663
50
52.8285564
51
71.9850297
0
ARC
8
DEFAULT_255_1_234
10
20.6627965
20
12.1341664
40
0.2939794
50
71.6863486
51
82.8455995
0
ARC
8
DEFAULT_255_1_234
10
20.6388501
20
11.9532149
40
0.476506
50
82.6984714
51
90.1729175
0
ARC
8
DEFAULT_255_1_234
10
20.6366136
20
12.0755623
40
0.3541573
50
89.8708275
51
90.0431131
0
LINE
8
DEFAULT_255_1_234
10
21.989695
20
11.3872
11
21.5752573
21
11.9309487
0
LINE
8
DEFAULT_255_1_234
10
21.5752573
20
11.9309487
11
21.4322924
21
11.7823615
0
LINE
8
DEFAULT_255_1_234
10
21.4322924
20
11.7823615
11
21.4322924
21
11.3872
0
LINE
8
DEFAULT_255_1_234
10
21.4322924
20
11.3872
11
21.278083
21
11.3872
0
LINE
8
DEFAULT_255_1_234
10
21.278083
20
11.3872
11
21.278083
21
12.5566211
0
LINE
8
DEFAULT_255_1_234
10
21.278083
20
12.5566211
11
21.4322924
21
12.5566211
0
LINE
8
DEFAULT_255_1_234
10
21.4322924
20
12.5566211
11
21.4322924
21
11.9783359
0
LINE
8
DEFAULT_255_1_234
10
21.4322924
20
11.9783359
11
21.9519458
21
12.5566211
0
LINE
8
DEFAULT_255_1_234
10
21.9519458
20
12.5566211
11
22.1382822
21
12.5566211
0
LINE
8
DEFAULT_255_1_234
10
22.1382822
20
12.5566211
11
21.6780636
21
12.0401803
0
LINE
8
DEFAULT_255_1_234
10
21.6780636
20
12.0401803
11
22.174425
21
11.3872
0
LINE
8
DEFAULT_255_1_234
10
22.174425
20
11.3872
11
21.989695
21
11.3872
0
LINE
8
DEFAULT_255_1_234
10
6.2867392
20
-1.842
11
5.8811364
21
-1.842
0
LINE
8
DEFAULT_255_1_234
10
5.8811364
20
-1.842
11
5.8811364
21
-0.6725789
0
LINE
8
DEFAULT_255_1_234
10
5.8811364
20
-0.6725789
11
6.2634471
21
-0.6725789
0
LINE
8
DEFAULT_255_1_234
10
6.2923614
20
-1.2950386
11
6.0353458
21
-1.2950386
0
LINE
8
DEFAULT_255_1_234
10
6.0353458
20
-1.2950386
11
6.0353458
21
-1.7159017
0
LINE
8
DEFAULT_255_1_234
10
6.0353458
20
-1.7159017
11
6.2899519
21
-1.7159017
0
LINE
8
DEFAULT_255_1_234
10
6.0353458
20
-0.7994804
11
6.0353458
21
-1.1713499
0
LINE
8
DEFAULT_255_1_234
10
6.0353458
20
-1.1713499
11
6.2682662
21
-1.1713499
0
LINE
8
DEFAULT_255_1_234
10
6.2634471
20
-0.7994804
11
6.0353458
21
-0.7994804
0
ARC
8
DEFAULT_255_1_234
10
6.267218
20
-1.4093099
40
0.7367406
50
82.1257326
51
90.2932599
0
ARC
8
DEFAULT_255_1_234
10
6.3061135
20
-1.1374987
40
0.4621653
50
69.9044149
51
82.2857423
0
ARC
8
DEFAULT_255_1_234
10
6.3631813
20
-0.9832363
40
0.2976871
50
51.1838526
51
70.0181538
0
ARC
8
DEFAULT_255_1_234
10
6.3886779
20
-0.946176
40
0.2528517
50
12.1017251
51
50.4214761
0
ARC
8
DEFAULT_255_1_234
10
6.2502653
20
-0.9809324
40
0.3955061
50
359.5251267
51
12.8211707
0
ARC
8
DEFAULT_255_1_234
10
6.4082579
20
-0.9878656
40
0.2375281
50
323.4908128
51
0.8817314
0
ARC
8
DEFAULT_255_1_234
10
6.3664266
20
-0.955545
40
0.2903817
50
298.6825083
51
323.2756573
0
ARC
8
DEFAULT_255_1_234
10
6.3302629
20
-0.8954351
40
0.3604842
50
293.1999386
51
299.1396394
0
ARC
8
DEFAULT_255_1_234
10
6.3975602
20
-1.5039874
40
0.2871098
50
54.0011765
51
74.9167975
0
ARC
8
DEFAULT_255_1_234
10
6.4091961
20
-1.4842668
40
0.2643248
50
36.3580696
51
53.5291921
0
ARC
8
DEFAULT_255_1_234
10
6.3965203
20
-1.4933002
40
0.2798884
50
4.8189881
51
36.3089977
0
ARC
8
DEFAULT_255_1_234
10
6.3186038
20
-1.504273
40
0.358478
50
359.9370252
51
5.5204067
0
ARC
8
DEFAULT_255_1_234
10
6.286156
20
-1.5083333
40
0.3909429
50
344.7478609
51
0.5373281
0
ARC
8
DEFAULT_255_1_234
10
6.3852531
20
-1.5350456
40
0.2883093
50
311.1786488
51
344.6886812
0
ARC
8
DEFAULT_255_1_234
10
6.3560578
20
-1.4987013
40
0.3348923
50
286.0418249
51
310.8441291
0
ARC
8
DEFAULT_255_1_234
10
6.305341
20
-1.3340193
40
0.5071869
50
274.1042341
51
286.4071509
0
ARC
8
DEFAULT_255_1_234
10
6.2876666
20
-1.1456771
40
0.6963234
50
269.9236873
51
274.445647
0
ARC
8
DEFAULT_255_1_234
10
6.2922667
20
-1.3796463
40
0.3362634
50
269.6055768
51
281.3740047
0
ARC
8
DEFAULT_255_1_234
10
6.3153305
20
-1.4889647
40
0.224546
50
281.1055983
51
302.5132223
0
ARC
8
DEFAULT_255_1_234
10
6.3300204
20
-1.5153177
40
0.1944357
50
303.0368945
51
311.8811219
0
ARC
8
DEFAULT_255_1_234
10
6.3371611
20
-1.523811
40
0.1833454
50
311.9916004
51
351.7143462
0
ARC
8
DEFAULT_255_1_234
10
6.2554841
20
-1.507307
40
0.2665871
50
350.7339597
51
0.2221581
0
ARC
8
DEFAULT_255_1_234
10
6.2447287
20
-1.5016533
40
0.2773789
50
359.0456241
51
17.2296242
0
ARC
8
DEFAULT_255_1_234
10
6.3486404
20
-1.4707837
40
0.1689915
50
17.6685481
51
78.9940892
0
ARC
8
DEFAULT_255_1_234
10
6.2969568
20
-1.6562776
40
0.3612658
50
76.5635957
51
90.6980921
0
LINE
8
DEFAULT_255_1_234
10
6.2925552
20
-1.2950387
11
6.2923614
21
-1.2950386
0
ARC
8
DEFAULT_255_1_234
10
6.2705228
20
-0.8427964
40
0.3285612
50
269.6064736
51
281.4533503
0
ARC
8
DEFAULT_255_1_234
10
6.2928048
20
-0.9479312
40
0.2210975
50
281.2041486
51
302.5148063
0
ARC
8
DEFAULT_255_1_234
10
6.3064898
20
-0.9725759
40
0.1929674
50
303.021671
51
309.8369575
0
ARC
8
DEFAULT_255_1_234
10
6.3248359
20
-0.9931512
40
0.1654181
50
309.5228395
51
356.9509836
0
ARC
8
DEFAULT_255_1_234
10
6.2584942
20
-0.9836068
40
0.2322512
50
355.4701227
51
0.0492546
0
ARC
8
DEFAULT_255_1_234
10
6.2306033
20
-0.9813906
40
0.2601498
50
359.5558597
51
11.2096359
0
ARC
8
DEFAULT_255_1_234
10
6.3263323
20
-0.961577
40
0.1623975
50
10.9182341
51
31.3230275
0
ARC
8
DEFAULT_255_1_234
10
6.3549056
20
-0.9456786
40
0.1297302
50
31.8852677
51
52.1412565
0
ARC
8
DEFAULT_255_1_234
10
6.3274789
20
-0.984425
40
0.1771663
50
52.8285564
51
71.9850297
0
ARC
8
DEFAULT_255_1_234
10
6.2898965
20
-1.0950336
40
0.2939794
50
71.6863486
51
82.8455995
0
ARC
8
DEFAULT_255_1_234
10
6.2659501
20
-1.2759851
40
0.476506
50
82.6984714
51
90.1729175
0
ARC
8
DEFAULT_255_1_234
10
6.2637136
20
-1.1536377
40
0.3541573
50
89.8708275
51
90.0431131
0
LINE
8
DEFAULT_255_1_234
10
7.0601956
20
-0.6725789
11
7.0601956
21
-1.7159017
0
LINE
8
DEFAULT_255_1_234
10
7.0601956
20
-1.7159017
11
7.6143855
21
-1.7159017
0
LINE
8
DEFAULT_255_1_234
10
7.6143855
20
-1.7159017
11
7.6143855
21
-1.842
0
LINE
8
DEFAULT_255_1_234
10
7.6143855
20
-1.842
11
6.905183
21
-1.842
0
LINE
8
DEFAULT_255_1_234
10
6.905183
20
-1.842
11
6.905183
21
-0.6725789
0
LINE
8
DEFAULT_255_1_234
10
6.905183
20
-0.6725789
11
7.0601956
21
-0.6725789
0
ENDSEC
0
EOF