0
SECTION
2
HEADER
9
$MEASUREMENT
70
1
0
ENDSEC
0
SECTION
2
TABLES
0
TABLE
2
LTYPE
0
LTYPE
72
65
70
64
2
CONTINUOUS
3
______
73
0
40
0
0
ENDTAB
0
TABLE
2
LAYER
0
LAYER
2
DEFAULT_255_2_778
70
0
62
255
6
CONTINUOUS
0
LAYER
2
DEFAULT_255_1_234
70
0
62
255
6
CONTINUOUS
0
ENDTAB
0
ENDSEC
0
SECTION
2
ENTITIES
0
LINE
8
DEFAULT_255_2_778
10
18.1239417
20
10.451
11
16.8010417
21
10.451
0
LINE
8
DEFAULT_255_2_778
10
3.5719169
20
17.0655831
11
16.8011169
21
17.0655831
0
LINE
8
DEFAULT_255_2_778
10
16.8011169
20
17.0655831
11
16.8011169
21
3.8363831
0
LINE
8
DEFAULT_255_2_778
10
16.8011169
20
3.8363831
11
3.5719169
21
3.8363831
0
LINE
8
DEFAULT_255_2_778
10
3.5719169
20
3.8363831
11
3.5719169
21
17.0655831
0
LINE
8
DEFAULT_255_2_778
10
10.1865
20
18.3885583
11
10.1865
21
17.0656583
0
LINE
8
DEFAULT_255_2_778
10
10.1865
20
2.5135583
11
10.1865
21
3.8364583
0
LINE
8
DEFAULT_255_2_778
10
13.8906
20
9.1280583
11
13.8906
21
7.8051583
0
LINE
8
DEFAULT_255_2_778
10
13.8906167
20
4.8948083
11
13.8906167
21
6.2177083
0
LINE
8
DEFAULT_255_2_778
10
13.8906167
20
6.2177083
11
13.3614167
21
7.8052083
0
LINE
8
DEFAULT_255_2_778
10
23.4156084
20
10.451
11
17.4614084
21
10.451
0
LINE
8
DEFAULT_255_2_778
10
6.2177
20
14.948925
11
6.2177
21
12.567725
0
LINE
8
DEFAULT_255_2_778
10
7.5406
20
12.567725
11
7.5406
21
14.948925
0
LINE
8
DEFAULT_255_2_778
10
6.8792167
20
15.6103833
11
8.7313167
21
13.7582833
0
LINE
8
DEFAULT_255_2_778
10
8.7313167
20
13.7582833
11
6.8792167
21
11.9061833
0
LINE
8
DEFAULT_255_2_778
10
6.8792167
20
11.9061833
11
5.0271167
21
13.7582833
0
LINE
8
DEFAULT_255_2_778
10
5.0271167
20
13.7582833
11
6.8792167
21
15.6103833
0
LINE
8
DEFAULT_255_2_778
10
10.1865
20
23.6801624
11
10.1865
21
17.7270624
0
LINE
8
DEFAULT_255_2_778
10
10.1865
20
-2.7781376
11
10.1865
21
3.1749624
0
LINE
8
DEFAULT_255_2_778
10
14.8166438
20
12.4353104
11
14.4197438
21
12.8322104
0
LINE
8
DEFAULT_255_2_778
10
14.4197438
20
12.8322104
11
14.2213438
21
12.3692104
0
LINE
8
DEFAULT_255_2_778
10
14.2213438
20
12.3692104
11
14.8166438
21
12.4353104
0
LINE
8
DEFAULT_255_2_778
10
12.8323
20
15.0812166
11
12.8323
21
12.4354166
0
LINE
8
DEFAULT_255_2_778
10
12.1708708
20
13.7583
11
12.8323708
21
13.7583
0
LINE
8
DEFAULT_255_2_778
10
12.8323125
20
14.4197292
11
14.8167125
21
15.0812292
0
LINE
8
DEFAULT_255_2_778
10
12.8323125
20
13.0968292
11
14.8167125
21
12.4353292
0
ARC
8
DEFAULT_255_2_778
10
10.1850557
20
17.0670443
40
0.6600157
50
89.871003
51
180.128997
0
ARC
8
DEFAULT_255_2_778
10
10.187949
20
17.0670655
40
0.6599943
50
359.8691577
51
90.1221758
0
ARC
8
DEFAULT_255_2_778
10
10.1879705
20
17.0641295
40
0.6599728
50
269.8759594
51
0.1240406
0
ARC
8
DEFAULT_255_2_778
10
10.1850345
20
17.0641508
40
0.6599942
50
179.8778094
51
270.1308423
0
LINE
8
DEFAULT_255_2_778
10
9.5250417
20
17.0655583
11
9.5250417
21
17.0655583
0
ARC
8
DEFAULT_255_2_778
10
10.1850557
20
3.8378443
40
0.6600157
50
89.871003
51
180.128997
0
ARC
8
DEFAULT_255_2_778
10
10.187949
20
3.8378655
40
0.6599943
50
359.8691577
51
90.1221758
0
ARC
8
DEFAULT_255_2_778
10
10.1879705
20
3.8349295
40
0.6599728
50
269.8759594
51
0.1240406
0
ARC
8
DEFAULT_255_2_778
10
10.1850345
20
3.8349508
40
0.6599942
50
179.8778094
51
270.1308423
0
LINE
8
DEFAULT_255_2_778
10
9.5250417
20
3.8363583
11
9.5250417
21
3.8363583
0
ARC
8
DEFAULT_255_2_778
10
16.7995557
20
10.4524443
40
0.6600157
50
89.871003
51
180.128997
0
ARC
8
DEFAULT_255_2_778
10
16.802449
20
10.4524655
40
0.6599943
50
359.8691577
51
90.1221758
0
ARC
8
DEFAULT_255_2_778
10
16.8024705
20
10.4495295
40
0.6599728
50
269.8759594
51
0.1240406
0
ARC
8
DEFAULT_255_2_778
10
16.7995345
20
10.4495508
40
0.6599942
50
179.8778094
51
270.1308423
0
LINE
8
DEFAULT_255_2_778
10
16.1395417
20
10.4509583
11
16.1395417
21
10.4509583
0
LINE
8
DEFAULT_255_2_778
10
6.6928563
20
6.9820739
11
6.6928563
21
6.7849739
0
LINE
8
DEFAULT_255_2_778
10
6.6928563
20
6.7849739
11
5.9260563
21
6.7849739
0
LINE
8
DEFAULT_255_2_778
10
5.9260563
20
6.7849739
11
5.9260563
21
5.9782739
0
LINE
8
DEFAULT_255_2_778
10
5.9260563
20
5.9782739
11
5.6850563
21
5.9782739
0
LINE
8
DEFAULT_255_2_778
10
5.6850563
20
5.9782739
11
5.6850563
21
7.8051739
0
LINE
8
DEFAULT_255_2_778
10
5.6850563
20
7.8051739
11
6.8169563
21
7.8051739
0
LINE
8
DEFAULT_255_2_778
10
6.8169563
20
7.8051739
11
6.8169563
21
7.6069739
0
LINE
8
DEFAULT_255_2_778
10
6.8169563
20
7.6069739
11
5.9260563
21
7.6069739
0
LINE
8
DEFAULT_255_2_778
10
5.9260563
20
7.6069739
11
5.9260563
21
6.9820739
0
LINE
8
DEFAULT_255_2_778
10
5.9260563
20
6.9820739
11
6.6928563
21
6.9820739
0
LINE
8
DEFAULT_255_2_778
10
6.6928563
20
6.9820739
11
6.6928563
21
6.9820739
0
ARC
8
DEFAULT_255_2_778
10
7.5908945
20
6.5733796
40
0.6204835
50
238.074715
51
271.4383867
0
ARC
8
DEFAULT_255_2_778
10
7.5793023
20
6.5356082
40
0.5823835
50
223.5447997
51
237.0775362
0
ARC
8
DEFAULT_255_2_778
10
7.6179101
20
6.5638688
40
0.6298669
50
185.3325058
51
222.9886822
0
ARC
8
DEFAULT_255_2_778
10
7.9346031
20
6.6171602
40
0.9504357
50
179.8715068
51
186.757078
0
ARC
8
DEFAULT_255_2_778
10
7.7965364
20
6.6764299
40
0.8124967
50
154.78305
51
181.0252662
0
ARC
8
DEFAULT_255_2_778
10
7.6064726
20
6.7669217
40
0.6019927
50
123.1401637
51
154.8679366
0
ARC
8
DEFAULT_255_2_778
10
7.5761669
20
6.8182006
40
0.5424937
50
89.8201458
51
123.4208454
0
ARC
8
DEFAULT_255_2_778
10
7.5918266
20
6.7854253
40
0.5754357
50
63.5924918
51
91.3898085
0
ARC
8
DEFAULT_255_2_778
10
7.6314289
20
6.8878714
40
0.4661754
50
39.8026907
51
62.3518734
0
ARC
8
DEFAULT_255_2_778
10
7.5216735
20
6.8067114
40
0.6025016
50
11.4302674
51
39.0506455
0
ARC
8
DEFAULT_255_2_778
10
7.0491537
20
6.6975302
40
1.0873691
50
359.4341537
51
12.1349926
0
ARC
8
DEFAULT_255_2_778
10
7.7361765
20
6.5890435
40
0.519408
50
179.873346
51
209.5662897
0
ARC
8
DEFAULT_255_2_778
10
7.6426022
20
6.5464985
40
0.4171261
50
210.8256124
51
222.2769391
0
ARC
8
DEFAULT_255_2_778
10
7.6094876
20
6.5107682
40
0.3686117
50
221.6302607
51
271.5517833
0
ARC
8
DEFAULT_255_2_778
10
7.6323349
20
6.5450782
40
0.4029919
50
268.1705885
51
298.9935935
0
ARC
8
DEFAULT_255_2_778
10
7.5600672
20
6.6427376
40
0.5236817
50
300.7306179
51
322.7411223
0
ARC
8
DEFAULT_255_2_778
10
7.6415843
20
6.5184282
40
0.5652454
50
268.6162494
51
327.5684273
0
ARC
8
DEFAULT_255_2_778
10
7.6068516
20
6.8213417
40
0.86825
50
269.9946056
51
271.3913901
0
ARC
8
DEFAULT_255_2_778
10
7.5718657
20
6.8604153
40
0.3098308
50
88.9265994
51
137.985281
0
ARC
8
DEFAULT_255_2_778
10
7.6778087
20
6.7691724
40
0.4496252
50
138.3827376
51
168.6258366
0
ARC
8
DEFAULT_255_2_778
10
7.9609954
20
6.691595
40
0.7428245
50
167.0671817
51
173.0878745
0
ARC
8
DEFAULT_255_2_778
10
7.3770469
20
6.7811006
40
0.5271099
50
1.8907156
51
24.1069677
0
ARC
8
DEFAULT_255_2_778
10
7.5597059
20
6.8556434
40
0.3300004
50
25.2467082
51
41.103262
0
ARC
8
DEFAULT_255_2_778
10
7.5907721
20
6.8788514
40
0.2913486
50
41.6805802
51
92.6365883
0
LINE
8
DEFAULT_255_2_778
10
6.9841698
20
6.6192916
11
6.9841698
21
6.6618916
0
LINE
8
DEFAULT_255_2_778
10
8.1364698
20
6.6867916
11
8.1364698
21
6.5901916
0
LINE
8
DEFAULT_255_2_778
10
8.1364698
20
6.5901916
11
7.2167698
21
6.5901916
0
LINE
8
DEFAULT_255_2_778
10
7.9768698
20
6.3256916
11
8.1186698
21
6.2152916
0
LINE
8
DEFAULT_255_2_778
10
7.6067698
20
5.9530916
11
7.6064698
21
5.9530916
0
LINE
8
DEFAULT_255_2_778
10
7.2235698
20
6.7809916
11
7.9038698
21
6.7809916
0
LINE
8
DEFAULT_255_2_778
10
7.9038698
20
6.7809916
11
7.9038698
21
6.7984916
0
LINE
8
DEFAULT_255_2_778
10
7.5773698
20
7.1698916
11
7.5776698
21
7.1701916
0
LINE
8
DEFAULT_255_1_234
10
6.3799392
20
21.3911
11
5.9743364
21
21.3911
0
LINE
8
DEFAULT_255_1_234
10
5.9743364
20
21.3911
11
5.9743364
21
22.5605211
0
LINE
8
DEFAULT_255_1_234
10
5.9743364
20
22.5605211
11
6.3566471
21
22.5605211
0
LINE
8
DEFAULT_255_1_234
10
6.3855614
20
21.9380614
11
6.1285458
21
21.9380614
0
LINE
8
DEFAULT_255_1_234
10
6.1285458
20
21.9380614
11
6.1285458
21
21.5171983
0
LINE
8
DEFAULT_255_1_234
10
6.1285458
20
21.5171983
11
6.3831519
21
21.5171983
0
LINE
8
DEFAULT_255_1_234
10
6.1285458
20
22.4336196
11
6.1285458
21
22.0617501
0
LINE
8
DEFAULT_255_1_234
10
6.1285458
20
22.0617501
11
6.3614662
21
22.0617501
0
LINE
8
DEFAULT_255_1_234
10
6.3566471
20
22.4336196
11
6.1285458
21
22.4336196
0
ARC
8
DEFAULT_255_1_234
10
6.360418
20
21.8237901
40
0.7367406
50
82.1257326
51
90.2932599
0
ARC
8
DEFAULT_255_1_234
10
6.3993135
20
22.0956013
40
0.4621653
50
69.9044149
51
82.2857423
0
ARC
8
DEFAULT_255_1_234
10
6.4563813
20
22.2498637
40
0.2976871
50
51.1838526
51
70.0181538
0
ARC
8
DEFAULT_255_1_234
10
6.4818779
20
22.286924
40
0.2528517
50
12.1017251
51
50.4214761
0
ARC
8
DEFAULT_255_1_234
10
6.3434653
20
22.2521676
40
0.3955061
50
359.5251267
51
12.8211707
0
ARC
8
DEFAULT_255_1_234
10
6.5014579
20
22.2452344
40
0.2375281
50
323.4908128
51
0.8817314
0
ARC
8
DEFAULT_255_1_234
10
6.4596266
20
22.277555
40
0.2903817
50
298.6825083
51
323.2756573
0
ARC
8
DEFAULT_255_1_234
10
6.4234629
20
22.3376649
40
0.3604842
50
293.1999386
51
299.1396394
0
ARC
8
DEFAULT_255_1_234
10
6.4907602
20
21.7291126
40
0.2871098
50
54.0011765
51
74.9167975
0
ARC
8
DEFAULT_255_1_234
10
6.5023961
20
21.7488332
40
0.2643248
50
36.3580696
51
53.5291921
0
ARC
8
DEFAULT_255_1_234
10
6.4897203
20
21.7397998
40
0.2798884
50
4.8189881
51
36.3089977
0
ARC
8
DEFAULT_255_1_234
10
6.4118038
20
21.728827
40
0.358478
50
359.9370252
51
5.5204067
0
ARC
8
DEFAULT_255_1_234
10
6.379356
20
21.7247667
40
0.3909429
50
344.7478609
51
0.5373281
0
ARC
8
DEFAULT_255_1_234
10
6.4784531
20
21.6980544
40
0.2883093
50
311.1786488
51
344.6886812
0
ARC
8
DEFAULT_255_1_234
10
6.4492578
20
21.7343987
40
0.3348923
50
286.0418249
51
310.8441291
0
ARC
8
DEFAULT_255_1_234
10
6.398541
20
21.8990807
40
0.5071869
50
274.1042341
51
286.4071509
0
ARC
8
DEFAULT_255_1_234
10
6.3808666
20
22.0874229
40
0.6963234
50
269.9236873
51
274.445647
0
ARC
8
DEFAULT_255_1_234
10
6.3854667
20
21.8534537
40
0.3362634
50
269.6055768
51
281.3740047
0
ARC
8
DEFAULT_255_1_234
10
6.4085305
20
21.7441353
40
0.224546
50
281.1055983
51
302.5132223
0
ARC
8
DEFAULT_255_1_234
10
6.4232204
20
21.7177823
40
0.1944357
50
303.0368945
51
311.8811219
0
ARC
8
DEFAULT_255_1_234
10
6.4303611
20
21.709289
40
0.1833454
50
311.9916004
51
351.7143462
0
ARC
8
DEFAULT_255_1_234
10
6.3486841
20
21.725793
40
0.2665871
50
350.7339597
51
0.2221581
0
ARC
8
DEFAULT_255_1_234
10
6.3379287
20
21.7314467
40
0.2773789
50
359.0456241
51
17.2296242
0
ARC
8
DEFAULT_255_1_234
10
6.4418404
20
21.7623163
40
0.1689915
50
17.6685481
51
78.9940892
0
ARC
8
DEFAULT_255_1_234
10
6.3901568
20
21.5768224
40
0.3612658
50
76.5635957
51
90.6980921
0
LINE
8
DEFAULT_255_1_234
10
6.3857552
20
21.9380613
11
6.3855614
21
21.9380614
0
ARC
8
DEFAULT_255_1_234
10
6.3637228
20
22.3903036
40
0.3285612
50
269.6064736
51
281.4533503
0
ARC
8
DEFAULT_255_1_234
10
6.3860048
20
22.2851688
40
0.2210975
50
281.2041486
51
302.5148063
0
ARC
8
DEFAULT_255_1_234
10
6.3996898
20
22.2605241
40
0.1929674
50
303.021671
51
309.8369575
0
ARC
8
DEFAULT_255_1_234
10
6.4180359
20
22.2399488
40
0.1654181
50
309.5228395
51
356.9509836
0
ARC
8
DEFAULT_255_1_234
10
6.3516942
20
22.2494932
40
0.2322512
50
355.4701227
51
0.0492546
0
ARC
8
DEFAULT_255_1_234
10
6.3238033
20
22.2517094
40
0.2601498
50
359.5558597
51
11.2096359
0
ARC
8
DEFAULT_255_1_234
10
6.4195323
20
22.271523
40
0.1623975
50
10.9182341
51
31.3230275
0
ARC
8
DEFAULT_255_1_234
10
6.4481056
20
22.2874214
40
0.1297302
50
31.8852677
51
52.1412565
0
ARC
8
DEFAULT_255_1_234
10
6.4206789
20
22.248675
40
0.1771663
50
52.8285564
51
71.9850297
0
ARC
8
DEFAULT_255_1_234
10
6.3830965
20
22.1380664
40
0.2939794
50
71.6863486
51
82.8455995
0
ARC
8
DEFAULT_255_1_234
10
6.3591501
20
21.9571149
40
0.476506
50
82.6984714
51
90.1729175
0
ARC
8
DEFAULT_255_1_234
10
6.3569136
20
22.0794623
40
0.3541573
50
89.8708275
51
90.0431131
0
LINE
8
DEFAULT_255_1_234
10
7.6810808
20
21.3911
11
7.4272778
21
21.8641694
0
LINE
8
DEFAULT_255_1_234
10
7.4272778
20
21.8641694
11
7.1525924
21
21.8641694
0
LINE
8
DEFAULT_255_1_234
10
7.1525924
20
21.8641694
11
7.1525924
21
21.3911
0
LINE
8
DEFAULT_255_1_234
10
7.1525924
20
21.3911
11
6.9975798
21
21.3911
0
LINE
8
DEFAULT_255_1_234
10
6.9975798
20
21.3911
11
6.9975798
21
22.5605211
0
LINE
8
DEFAULT_255_1_234
10
6.9975798
20
22.5605211
11
7.3847096
21
22.5605211
0
LINE
8
DEFAULT_255_1_234
10
7.5718491
20
21.8970995
11
7.8465346
21
21.4007381
0
LINE
8
DEFAULT_255_1_234
10
7.8465346
20
21.4007381
11
7.8465346
21
21.3911
0
LINE
8
DEFAULT_255_1_234
10
7.8465346
20
21.3911
11
7.6810808
21
21.3911
0
LINE
8
DEFAULT_255_1_234
10
7.1525924
20
22.4336196
11
7.1525924
21
21.9902677
0
LINE
8
DEFAULT_255_1_234
10
7.1525924
20
21.9902677
11
7.3895287
21
21.9902677
0
LINE
8
DEFAULT_255_1_234
10
7.3887255
20
22.4336196
11
7.1525924
21
22.4336196
0
ARC
8
DEFAULT_255_1_234
10
7.3888736
20
21.8643761
40
0.6961575
50
80.653586
51
90.3427061
0
ARC
8
DEFAULT_255_1_234
10
7.430821
20
22.1106348
40
0.4463577
50
65.6987447
51
80.8329603
0
ARC
8
DEFAULT_255_1_234
10
7.4785851
20
22.2201322
40
0.3269094
50
50.0017161
51
65.4305835
0
ARC
8
DEFAULT_255_1_234
10
7.5004315
20
22.2496482
40
0.2902647
50
11.628416
51
49.5603263
0
ARC
8
DEFAULT_255_1_234
10
7.3468651
20
22.2121299
40
0.4482792
50
359.5655735
51
12.3691
0
ARC
8
DEFAULT_255_1_234
10
7.4545511
20
22.2058644
40
0.3405924
50
341.9983148
51
0.4822259
0
ARC
8
DEFAULT_255_1_234
10
7.4940351
20
22.1951471
40
0.2997359
50
323.8609373
51
341.61416
0
ARC
8
DEFAULT_255_1_234
10
7.4638595
20
22.2184484
40
0.3378487
50
296.7018614
51
323.6876402
0
ARC
8
DEFAULT_255_1_234
10
7.4197491
20
22.2973235
40
0.4281516
50
290.8086567
51
297.2323311
0
ARC
8
DEFAULT_255_1_234
10
7.392102
20
22.3496351
40
0.3593766
50
269.589728
51
281.8058135
0
ARC
8
DEFAULT_255_1_234
10
7.4171919
20
22.2348743
40
0.2419125
50
281.5501019
51
303.9357432
0
ARC
8
DEFAULT_255_1_234
10
7.4309107
20
22.2110936
40
0.2145323
50
304.4415616
51
311.2106213
0
ARC
8
DEFAULT_255_1_234
10
7.4441212
20
22.1971632
40
0.1953505
50
310.9875673
51
356.2715578
0
ARC
8
DEFAULT_255_1_234
10
7.3684861
20
22.2084422
40
0.2716331
50
354.9348262
51
0.0609027
0
ARC
8
DEFAULT_255_1_234
10
7.3497735
20
22.2111435
40
0.2903554
50
359.5239371
51
12.8808918
0
ARC
8
DEFAULT_255_1_234
10
7.4475291
20
22.2350728
40
0.1897315
50
12.4173452
51
43.1022135
0
ARC
8
DEFAULT_255_1_234
10
7.4536895
20
22.2387724
40
0.1827118
50
43.5751728
51
48.203944
0
ARC
8
DEFAULT_255_1_234
10
7.4367387
20
22.2166302
40
0.2105272
50
48.7809703
51
72.6969569
0
ARC
8
DEFAULT_255_1_234
10
7.4013012
20
22.109082
40
0.3237537
50
72.3702241
51
84.8791103
0
ARC
8
DEFAULT_255_1_234
10
7.3865488
20
21.9748769
40
0.4587478
50
84.5400526
51
89.7281406
0
LINE
8
DEFAULT_255_1_234
10
19.5997392
20
11.3872
11
19.1941364
21
11.3872
0
LINE
8
DEFAULT_255_1_234
10
19.1941364
20
11.3872
11
19.1941364
21
12.5566211
0
LINE
8
DEFAULT_255_1_234
10
19.1941364
20
12.5566211
11
19.5764471
21
12.5566211
0
LINE
8
DEFAULT_255_1_234
10
19.6053614
20
11.9341614
11
19.3483458
21
11.9341614
0
LINE
8
DEFAULT_255_1_234
10
19.3483458
20
11.9341614
11
19.3483458
21
11.5132983
0
LINE
8
DEFAULT_255_1_234
10
19.3483458
20
11.5132983
11
19.6029519
21
11.5132983
0
LINE
8
DEFAULT_255_1_234
10
19.3483458
20
12.4297196
11
19.3483458
21
12.0578501
0
LINE
8
DEFAULT_255_1_234
10
19.3483458
20
12.0578501
11
19.5812662
21
12.0578501
0
LINE
8
DEFAULT_255_1_234
10
19.5764471
20
12.4297196
11
19.3483458
21
12.4297196
0
ARC
8
DEFAULT_255_1_234
10
19.580218
20
11.8198901
40
0.7367406
50
82.1257326
51
90.2932599
0
ARC
8
DEFAULT_255_1_234
10
19.6191135
20
12.0917013
40
0.4621653
50
69.9044149
51
82.2857423
0
ARC
8
DEFAULT_255_1_234
10
19.6761813
20
12.2459637
40
0.2976871
50
51.1838526
51
70.0181538
0
ARC
8
DEFAULT_255_1_234
10
19.7016779
20
12.283024
40
0.2528517
50
12.1017251
51
50.4214761
0
ARC
8
DEFAULT_255_1_234
10
19.5632653
20
12.2482676
40
0.3955061
50
359.5251267
51
12.8211707
0
ARC
8
DEFAULT_255_1_234
10
19.7212579
20
12.2413344
40
0.2375281
50
323.4908128
51
0.8817314
0
ARC
8
DEFAULT_255_1_234
10
19.6794266
20
12.273655
40
0.2903817
50
298.6825083
51
323.2756573
0
ARC
8
DEFAULT_255_1_234
10
19.6432629
20
12.3337649
40
0.3604842
50
293.1999386
51
299.1396394
0
ARC
8
DEFAULT_255_1_234
10
19.7105602
20
11.7252126
40
0.2871098
50
54.0011765
51
74.9167975
0
ARC
8
DEFAULT_255_1_234
10
19.7221961
20
11.7449332
40
0.2643248
50
36.3580696
51
53.5291921
0
ARC
8
DEFAULT_255_1_234
10
19.7095203
20
11.7358998
40
0.2798884
50
4.8189881
51
36.3089977
0
ARC
8
DEFAULT_255_1_234
10
19.6316038
20
11.724927
40
0.358478
50
359.9370252
51
5.5204067
0
ARC
8
DEFAULT_255_1_234
10
19.599156
20
11.7208667
40
0.3909429
50
344.7478609
51
0.5373281
0
ARC
8
DEFAULT_255_1_234
10
19.6982531
20
11.6941544
40
0.2883093
50
311.1786488
51
344.6886812
0
ARC
8
DEFAULT_255_1_234
10
19.6690578
20
11.7304987
40
0.3348923
50
286.0418249
51
310.8441291
0
ARC
8
DEFAULT_255_1_234
10
19.618341
20
11.8951807
40
0.5071869
50
274.1042341
51
286.4071509
0
ARC
8
DEFAULT_255_1_234
10
19.6006666
20
12.0835229
40
0.6963234
50
269.9236873
51
274.445647
0
ARC
8
DEFAULT_255_1_234
10
19.6052667
20
11.8495537
40
0.3362634
50
269.6055768
51
281.3740047
0
ARC
8
DEFAULT_255_1_234
10
19.6283305
20
11.7402353
40
0.224546
50
281.1055983
51
302.5132223
0
ARC
8
DEFAULT_255_1_234
10
19.6430204
20
11.7138823
40
0.1944357
50
303.0368945
51
311.8811219
0
ARC
8
DEFAULT_255_1_234
10
19.6501611
20
11.705389
40
0.1833454
50
311.9916004
51
351.7143462
0
ARC
8
DEFAULT_255_1_234
10
19.5684841
20
11.721893
40
0.2665871
50
350.7339597
51
0.2221581
0
ARC
8
DEFAULT_255_1_234
10
19.5577287
20
11.7275467
40
0.2773789
50
359.0456241
51
17.2296242
0
ARC
8
DEFAULT_255_1_234
10
19.6616404
20
11.7584163
40
0.1689915
50
17.6685481
51
78.9940892
0
ARC
8
DEFAULT_255_1_234
10
19.6099568
20
11.5729224
40
0.3612658
50
76.5635957
51
90.6980921
0
LINE
8
DEFAULT_255_1_234
10
19.6055552
20
11.9341613
11
19.6053614
21
11.9341614
0
ARC
8
DEFAULT_255_1_234
10
19.5835228
20
12.3864036
40
0.3285612
50
269.6064736
51
281.4533503
0
ARC
8
DEFAULT_255_1_234
10
19.6058048
20
12.2812688
40
0.2210975
50
281.2041486
51
302.5148063
0
ARC
8
DEFAULT_255_1_234
10
19.6194898
20
12.2566241
40
0.1929674
50
303.021671
51
309.8369575
0
ARC
8
DEFAULT_255_1_234
10
19.6378359
20
12.2360488
40
0.1654181
50
309.5228395
51
356.9509836
0
ARC
8
DEFAULT_255_1_234
10
19.5714942
20
12.2455932
40
0.2322512
50
355.4701227
51
0.0492546
0
ARC
8
DEFAULT_255_1_234
10
19.5436033
20
12.2478094
40
0.2601498
50
359.5558597
51
11.2096359
0
ARC
8
DEFAULT_255_1_234
10
19.6393323
20
12.267623
40
0.1623975
50
10.9182341
51
31.3230275
0
ARC
8
DEFAULT_255_1_234
10
19.6679056
20
12.2835214
40
0.1297302
50
31.8852677
51
52.1412565
0
ARC
8
DEFAULT_255_1_234
10
19.6404789
20
12.244775
40
0.1771663
50
52.8285564
51
71.9850297
0
ARC
8
DEFAULT_255_1_234
10
19.6028965
20
12.1341664
40
0.2939794
50
71.6863486
51
82.8455995
0
ARC
8
DEFAULT_255_1_234
10
19.5789501
20
11.9532149
40
0.476506
50
82.6984714
51
90.1729175
0
ARC
8
DEFAULT_255_1_234
10
19.5767136
20
12.0755623
40
0.3541573
50
89.8708275
51
90.0431131
0
LINE
8
DEFAULT_255_1_234
10
20.929795
20
11.3872
11
20.5153573
21
11.9309487
0
LINE
8
DEFAULT_255_1_234
10
20.5153573
20
11.9309487
11
20.3723924
21
11.7823615
0
LINE
8
DEFAULT_255_1_234
10
20.3723924
20
11.7823615
11
20.3723924
21
11.3872
0
LINE
8
DEFAULT_255_1_234
10
20.3723924
20
11.3872
11
20.218183
21
11.3872
0
LINE
8
DEFAULT_255_1_234
10
20.218183
20
11.3872
11
20.218183
21
12.5566211
0
LINE
8
DEFAULT_255_1_234
10
20.218183
20
12.5566211
11
20.3723924
21
12.5566211
0
LINE
8
DEFAULT_255_1_234
10
20.3723924
20
12.5566211
11
20.3723924
21
11.9783359
0
LINE
8
DEFAULT_255_1_234
10
20.3723924
20
11.9783359
11
20.8920458
21
12.5566211
0
LINE
8
DEFAULT_255_1_234
10
20.8920458
20
12.5566211
11
21.0783822
21
12.5566211
0
LINE
8
DEFAULT_255_1_234
10
21.0783822
20
12.5566211
11
20.6181636
21
12.0401803
0
LINE
8
DEFAULT_255_1_234
10
20.6181636
20
12.0401803
11
21.114525
21
11.3872
0
LINE
8
DEFAULT_255_1_234
10
21.114525
20
11.3872
11
20.929795
21
11.3872
0
LINE
8
DEFAULT_255_1_234
10
6.5497392
20
-1.842
11
6.1441364
21
-1.842
0
LINE
8
DEFAULT_255_1_234
10
6.1441364
20
-1.842
11
6.1441364
21
-0.6725789
0
LINE
8
DEFAULT_255_1_234
10
6.1441364
20
-0.6725789
11
6.5264471
21
-0.6725789
0
LINE
8
DEFAULT_255_1_234
10
6.5553614
20
-1.2950386
11
6.2983458
21
-1.2950386
0
LINE
8
DEFAULT_255_1_234
10
6.2983458
20
-1.2950386
11
6.2983458
21
-1.7159017
0
LINE
8
DEFAULT_255_1_234
10
6.2983458
20
-1.7159017
11
6.5529519
21
-1.7159017
0
LINE
8
DEFAULT_255_1_234
10
6.2983458
20
-0.7994804
11
6.2983458
21
-1.1713499
0
LINE
8
DEFAULT_255_1_234
10
6.2983458
20
-1.1713499
11
6.5312662
21
-1.1713499
0
LINE
8
DEFAULT_255_1_234
10
6.5264471
20
-0.7994804
11
6.2983458
21
-0.7994804
0
ARC
8
DEFAULT_255_1_234
10
6.530218
20
-1.4093099
40
0.7367406
50
82.1257326
51
90.2932599
0
ARC
8
DEFAULT_255_1_234
10
6.5691135
20
-1.1374987
40
0.4621653
50
69.9044149
51
82.2857423
0
ARC
8
DEFAULT_255_1_234
10
6.6261813
20
-0.9832363
40
0.2976871
50
51.1838526
51
70.0181538
0
ARC
8
DEFAULT_255_1_234
10
6.6516779
20
-0.946176
40
0.2528517
50
12.1017251
51
50.4214761
0
ARC
8
DEFAULT_255_1_234
10
6.5132653
20
-0.9809324
40
0.3955061
50
359.5251267
51
12.8211707
0
ARC
8
DEFAULT_255_1_234
10
6.6712579
20
-0.9878656
40
0.2375281
50
323.4908128
51
0.8817314
0
ARC
8
DEFAULT_255_1_234
10
6.6294266
20
-0.955545
40
0.2903817
50
298.6825083
51
323.2756573
0
ARC
8
DEFAULT_255_1_234
10
6.5932629
20
-0.8954351
40
0.3604842
50
293.1999386
51
299.1396394
0
ARC
8
DEFAULT_255_1_234
10
6.6605602
20
-1.5039874
40
0.2871098
50
54.0011765
51
74.9167975
0
ARC
8
DEFAULT_255_1_234
10
6.6721961
20
-1.4842668
40
0.2643248
50
36.3580696
51
53.5291921
0
ARC
8
DEFAULT_255_1_234
10
6.6595203
20
-1.4933002
40
0.2798884
50
4.8189881
51
36.3089977
0
ARC
8
DEFAULT_255_1_234
10
6.5816038
20
-1.504273
40
0.358478
50
359.9370252
51
5.5204067
0
ARC
8
DEFAULT_255_1_234
10
6.549156
20
-1.5083333
40
0.3909429
50
344.7478609
51
0.5373281
0
ARC
8
DEFAULT_255_1_234
10
6.6482531
20
-1.5350456
40
0.2883093
50
311.1786488
51
344.6886812
0
ARC
8
DEFAULT_255_1_234
10
6.6190578
20
-1.4987013
40
0.3348923
50
286.0418249
51
310.8441291
0
ARC
8
DEFAULT_255_1_234
10
6.568341
20
-1.3340193
40
0.5071869
50
274.1042341
51
286.4071509
0
ARC
8
DEFAULT_255_1_234
10
6.5506666
20
-1.1456771
40
0.6963234
50
269.9236873
51
274.445647
0
ARC
8
DEFAULT_255_1_234
10
6.5552667
20
-1.3796463
40
0.3362634
50
269.6055768
51
281.3740047
0
ARC
8
DEFAULT_255_1_234
10
6.5783305
20
-1.4889647
40
0.224546
50
281.1055983
51
302.5132223
0
ARC
8
DEFAULT_255_1_234
10
6.5930204
20
-1.5153177
40
0.1944357
50
303.0368945
51
311.8811219
0
ARC
8
DEFAULT_255_1_234
10
6.6001611
20
-1.523811
40
0.1833454
50
311.9916004
51
351.7143462
0
ARC
8
DEFAULT_255_1_234
10
6.5184841
20
-1.507307
40
0.2665871
50
350.7339597
51
0.2221581
0
ARC
8
DEFAULT_255_1_234
10
6.5077287
20
-1.5016533
40
0.2773789
50
359.0456241
51
17.2296242
0
ARC
8
DEFAULT_255_1_234
10
6.6116404
20
-1.4707837
40
0.1689915
50
17.6685481
51
78.9940892
0
ARC
8
DEFAULT_255_1_234
10
6.5599568
20
-1.6562776
40
0.3612658
50
76.5635957
51
90.6980921
0
LINE
8
DEFAULT_255_1_234
10
6.5555552
20
-1.2950387
11
6.5553614
21
-1.2950386
0
ARC
8
DEFAULT_255_1_234
10
6.5335228
20
-0.8427964
40
0.3285612
50
269.6064736
51
281.4533503
0
ARC
8
DEFAULT_255_1_234
10
6.5558048
20
-0.9479312
40
0.2210975
50
281.2041486
51
302.5148063
0
ARC
8
DEFAULT_255_1_234
10
6.5694898
20
-0.9725759
40
0.1929674
50
303.021671
51
309.8369575
0
ARC
8
DEFAULT_255_1_234
10
6.5878359
20
-0.9931512
40
0.1654181
50
309.5228395
51
356.9509836
0
ARC
8
DEFAULT_255_1_234
10
6.5214942
20
-0.9836068
40
0.2322512
50
355.4701227
51
0.0492546
0
ARC
8
DEFAULT_255_1_234
10
6.4936033
20
-0.9813906
40
0.2601498
50
359.5558597
51
11.2096359
0
ARC
8
DEFAULT_255_1_234
10
6.5893323
20
-0.961577
40
0.1623975
50
10.9182341
51
31.3230275
0
ARC
8
DEFAULT_255_1_234
10
6.6179056
20
-0.9456786
40
0.1297302
50
31.8852677
51
52.1412565
0
ARC
8
DEFAULT_255_1_234
10
6.5904789
20
-0.984425
40
0.1771663
50
52.8285564
51
71.9850297
0
ARC
8
DEFAULT_255_1_234
10
6.5528965
20
-1.0950336
40
0.2939794
50
71.6863486
51
82.8455995
0
ARC
8
DEFAULT_255_1_234
10
6.5289501
20
-1.2759851
40
0.476506
50
82.6984714
51
90.1729175
0
ARC
8
DEFAULT_255_1_234
10
6.5267136
20
-1.1536377
40
0.3541573
50
89.8708275
51
90.0431131
0
LINE
8
DEFAULT_255_1_234
10
7.3231956
20
-0.6725789
11
7.3231956
21
-1.7159017
0
LINE
8
DEFAULT_255_1_234
10
7.3231956
20
-1.7159017
11
7.8773855
21
-1.7159017
0
LINE
8
DEFAULT_255_1_234
10
7.8773855
20
-1.7159017
11
7.8773855
21
-1.842
0
LINE
8
DEFAULT_255_1_234
10
7.8773855
20
-1.842
11
7.168183
21
-1.842
0
LINE
8
DEFAULT_255_1_234
10
7.168183
20
-1.842
11
7.168183
21
-0.6725789
0
LINE
8
DEFAULT_255_1_234
10
7.168183
20
-0.6725789
11
7.3231956
21
-0.6725789
0
ENDSEC
0
EOF