0
SECTION
2
HEADER
9
$MEASUREMENT
70
1
0
ENDSEC
0
SECTION
2
TABLES
0
TABLE
2
LTYPE
0
LTYPE
72
65
70
64
2
CONTINUOUS
3
______
73
0
40
0
0
ENDTAB
0
TABLE
2
LAYER
0
LAYER
2
DEFAULT_255_2_778
70
0
62
255
6
CONTINUOUS
0
LAYER
2
DEFAULT_255_1_234
70
0
62
255
6
CONTINUOUS
0
ENDTAB
0
ENDSEC
0
SECTION
2
ENTITIES
0
LINE
8
DEFAULT_255_2_778
10
3.5713169
20
17.0655831
11
16.8005169
21
17.0655831
0
LINE
8
DEFAULT_255_2_778
10
16.8005169
20
17.0655831
11
16.8005169
21
3.8363831
0
LINE
8
DEFAULT_255_2_778
10
16.8005169
20
3.8363831
11
3.5713169
21
3.8363831
0
LINE
8
DEFAULT_255_2_778
10
3.5713169
20
3.8363831
11
3.5713169
21
17.0655831
0
LINE
8
DEFAULT_255_2_778
10
6.8795048
20
15.6291952
11
8.7504048
21
13.7582952
0
LINE
8
DEFAULT_255_2_778
10
8.7504048
20
13.7582952
11
6.8795048
21
11.8873952
0
LINE
8
DEFAULT_255_2_778
10
6.8795048
20
11.8873952
11
5.0086048
21
13.7582952
0
LINE
8
DEFAULT_255_2_778
10
5.0086048
20
13.7582952
11
6.8795048
21
15.6291952
0
LINE
8
DEFAULT_255_2_778
10
6.218
20
14.948925
11
6.218
21
12.567725
0
LINE
8
DEFAULT_255_2_778
10
7.5409
20
12.567725
11
7.5409
21
14.948925
0
LINE
8
DEFAULT_255_2_778
10
10.1859084
20
10.451075
11
11.5088084
21
10.451075
0
LINE
8
DEFAULT_255_2_778
10
11.5088084
20
10.451075
11
13.6255084
21
11.244775
0
LINE
8
DEFAULT_255_2_778
10
13.6255417
20
10.451
11
14.9484417
21
10.451
0
LINE
8
DEFAULT_255_2_778
10
18.1234417
20
10.451
11
16.8005417
21
10.451
0
LINE
8
DEFAULT_255_2_778
10
10.1859
20
18.3885583
11
10.1859
21
17.0656583
0
LINE
8
DEFAULT_255_2_778
10
10.1859
20
2.5135583
11
10.1859
21
3.8364583
0
LINE
8
DEFAULT_255_2_778
10
4.6297167
20
8.8635583
11
5.1589167
21
8.8635583
0
LINE
8
DEFAULT_255_2_778
10
5.1589167
20
8.8635583
11
5.1589167
21
7.5406583
0
LINE
8
DEFAULT_255_2_778
10
5.1589167
20
7.5406583
11
4.6297167
21
7.5406583
0
LINE
8
DEFAULT_255_2_778
10
4.6297167
20
7.5406583
11
4.6297167
21
8.8635583
0
LINE
8
DEFAULT_255_2_778
10
4.6297167
20
6.7468583
11
5.1589167
21
6.7468583
0
LINE
8
DEFAULT_255_2_778
10
5.1589167
20
6.7468583
11
5.1589167
21
5.4239583
0
LINE
8
DEFAULT_255_2_778
10
5.1589167
20
5.4239583
11
4.6297167
21
5.4239583
0
LINE
8
DEFAULT_255_2_778
10
4.6297167
20
5.4239583
11
4.6297167
21
6.7468583
0
LINE
8
DEFAULT_255_2_778
10
8.0692333
20
8.8634916
11
9.1275333
21
8.8634916
0
LINE
8
DEFAULT_255_2_778
10
9.1275333
20
8.8634916
11
9.1275333
21
5.4238916
0
LINE
8
DEFAULT_255_2_778
10
9.1275333
20
5.4238916
11
8.0692333
21
5.4238916
0
LINE
8
DEFAULT_255_2_778
10
8.0692333
20
5.4238916
11
8.0692333
21
8.8634916
0
LINE
8
DEFAULT_255_2_778
10
5.5557584
20
8.0697833
11
7.4078584
21
8.0697833
0
LINE
8
DEFAULT_255_2_778
10
7.4078584
20
8.0697833
11
6.3494584
21
8.3343833
0
LINE
8
DEFAULT_255_2_778
10
6.3494584
20
8.3343833
11
6.3494584
21
7.8051833
0
LINE
8
DEFAULT_255_2_778
10
6.3494584
20
7.8051833
11
7.4078584
21
8.0697833
0
LINE
8
DEFAULT_255_2_778
10
7.4078584
20
6.2176833
11
5.5557584
21
6.2176833
0
LINE
8
DEFAULT_255_2_778
10
5.5557584
20
6.2176833
11
6.6140584
21
6.4822833
0
LINE
8
DEFAULT_255_2_778
10
6.6140584
20
6.4822833
11
6.6140584
21
5.9530833
0
LINE
8
DEFAULT_255_2_778
10
6.6140584
20
5.9530833
11
5.5557584
21
6.2176833
0
LINE
8
DEFAULT_255_2_778
10
8.5984167
20
8.8634833
11
8.0692167
21
8.3342833
0
LINE
8
DEFAULT_255_2_778
10
9.1275333
20
8.8634667
11
8.0692333
21
7.8051667
0
LINE
8
DEFAULT_255_2_778
10
9.1275333
20
8.3343667
11
8.0692333
21
7.2760667
0
LINE
8
DEFAULT_255_2_778
10
9.1275333
20
7.8051667
11
8.0692333
21
6.7468667
0
LINE
8
DEFAULT_255_2_778
10
9.1275333
20
7.2759667
11
8.0692333
21
6.2176667
0
LINE
8
DEFAULT_255_2_778
10
9.1275333
20
6.7468667
11
8.0692333
21
5.6885667
0
LINE
8
DEFAULT_255_2_778
10
9.127525
20
6.217675
11
8.333825
21
5.423975
0
LINE
8
DEFAULT_255_2_778
10
9.1276083
20
5.6884917
11
8.8630083
21
5.4238917
0
ARC
8
DEFAULT_255_2_778
10
16.7990557
20
10.4524443
40
0.6600157
50
89.871003
51
180.128997
0
ARC
8
DEFAULT_255_2_778
10
16.801949
20
10.4524655
40
0.6599943
50
359.8691577
51
90.1221758
0
ARC
8
DEFAULT_255_2_778
10
16.8019705
20
10.4495295
40
0.6599728
50
269.8759594
51
0.1240406
0
ARC
8
DEFAULT_255_2_778
10
16.7990345
20
10.4495508
40
0.6599942
50
179.8778094
51
270.1308423
0
LINE
8
DEFAULT_255_2_778
10
16.1390417
20
10.4509583
11
16.1390417
21
10.4509583
0
ARC
8
DEFAULT_255_2_778
10
10.1844557
20
17.0670443
40
0.6600157
50
89.871003
51
180.128997
0
ARC
8
DEFAULT_255_2_778
10
10.187349
20
17.0670655
40
0.6599943
50
359.8691577
51
90.1221758
0
ARC
8
DEFAULT_255_2_778
10
10.1873705
20
17.0641295
40
0.6599728
50
269.8759594
51
0.1240406
0
ARC
8
DEFAULT_255_2_778
10
10.1844345
20
17.0641508
40
0.6599942
50
179.8778094
51
270.1308423
0
LINE
8
DEFAULT_255_2_778
10
9.5244417
20
17.0655583
11
9.5244417
21
17.0655583
0
ARC
8
DEFAULT_255_2_778
10
10.1844557
20
3.8378443
40
0.6600157
50
89.871003
51
180.128997
0
ARC
8
DEFAULT_255_2_778
10
10.187349
20
3.8378655
40
0.6599943
50
359.8691577
51
90.1221758
0
ARC
8
DEFAULT_255_2_778
10
10.1873705
20
3.8349295
40
0.6599728
50
269.8759594
51
0.1240406
0
ARC
8
DEFAULT_255_2_778
10
10.1844345
20
3.8349508
40
0.6599942
50
179.8778094
51
270.1308423
0
LINE
8
DEFAULT_255_2_778
10
9.5244417
20
3.8363583
11
9.5244417
21
3.8363583
0
LINE
8
DEFAULT_255_2_778
10
10.1859
20
23.6801624
11
10.1859
21
17.7270624
0
LINE
8
DEFAULT_255_2_778
10
23.4160792
20
10.451
11
17.4608792
21
10.451
0
LINE
8
DEFAULT_255_2_778
10
10.1859
20
-2.7781376
11
10.1859
21
3.1749624
0
LINE
8
DEFAULT_255_1_234
10
6.3794392
20
21.3911
11
5.9738364
21
21.3911
0
LINE
8
DEFAULT_255_1_234
10
5.9738364
20
21.3911
11
5.9738364
21
22.5605211
0
LINE
8
DEFAULT_255_1_234
10
5.9738364
20
22.5605211
11
6.3561471
21
22.5605211
0
LINE
8
DEFAULT_255_1_234
10
6.3850614
20
21.9380614
11
6.1280458
21
21.9380614
0
LINE
8
DEFAULT_255_1_234
10
6.1280458
20
21.9380614
11
6.1280458
21
21.5171983
0
LINE
8
DEFAULT_255_1_234
10
6.1280458
20
21.5171983
11
6.3826519
21
21.5171983
0
LINE
8
DEFAULT_255_1_234
10
6.1280458
20
22.4336196
11
6.1280458
21
22.0617501
0
LINE
8
DEFAULT_255_1_234
10
6.1280458
20
22.0617501
11
6.3609662
21
22.0617501
0
LINE
8
DEFAULT_255_1_234
10
6.3561471
20
22.4336196
11
6.1280458
21
22.4336196
0
ARC
8
DEFAULT_255_1_234
10
6.359918
20
21.8237901
40
0.7367406
50
82.1257326
51
90.2932599
0
ARC
8
DEFAULT_255_1_234
10
6.3988135
20
22.0956013
40
0.4621653
50
69.9044149
51
82.2857423
0
ARC
8
DEFAULT_255_1_234
10
6.4558813
20
22.2498637
40
0.2976871
50
51.1838526
51
70.0181538
0
ARC
8
DEFAULT_255_1_234
10
6.4813779
20
22.286924
40
0.2528517
50
12.1017251
51
50.4214761
0
ARC
8
DEFAULT_255_1_234
10
6.3429653
20
22.2521676
40
0.3955061
50
359.5251267
51
12.8211707
0
ARC
8
DEFAULT_255_1_234
10
6.5009579
20
22.2452344
40
0.2375281
50
323.4908128
51
0.8817314
0
ARC
8
DEFAULT_255_1_234
10
6.4591266
20
22.277555
40
0.2903817
50
298.6825083
51
323.2756573
0
ARC
8
DEFAULT_255_1_234
10
6.4229629
20
22.3376649
40
0.3604842
50
293.1999386
51
299.1396394
0
ARC
8
DEFAULT_255_1_234
10
6.4902602
20
21.7291126
40
0.2871098
50
54.0011765
51
74.9167975
0
ARC
8
DEFAULT_255_1_234
10
6.5018961
20
21.7488332
40
0.2643248
50
36.3580696
51
53.5291921
0
ARC
8
DEFAULT_255_1_234
10
6.4892203
20
21.7397998
40
0.2798884
50
4.8189881
51
36.3089977
0
ARC
8
DEFAULT_255_1_234
10
6.4113038
20
21.728827
40
0.358478
50
359.9370252
51
5.5204067
0
ARC
8
DEFAULT_255_1_234
10
6.378856
20
21.7247667
40
0.3909429
50
344.7478609
51
0.5373281
0
ARC
8
DEFAULT_255_1_234
10
6.4779531
20
21.6980544
40
0.2883093
50
311.1786488
51
344.6886812
0
ARC
8
DEFAULT_255_1_234
10
6.4487578
20
21.7343987
40
0.3348923
50
286.0418249
51
310.8441291
0
ARC
8
DEFAULT_255_1_234
10
6.398041
20
21.8990807
40
0.5071869
50
274.1042341
51
286.4071509
0
ARC
8
DEFAULT_255_1_234
10
6.3803666
20
22.0874229
40
0.6963234
50
269.9236873
51
274.445647
0
ARC
8
DEFAULT_255_1_234
10
6.3849667
20
21.8534537
40
0.3362634
50
269.6055768
51
281.3740047
0
ARC
8
DEFAULT_255_1_234
10
6.4080305
20
21.7441353
40
0.224546
50
281.1055983
51
302.5132223
0
ARC
8
DEFAULT_255_1_234
10
6.4227204
20
21.7177823
40
0.1944357
50
303.0368945
51
311.8811219
0
ARC
8
DEFAULT_255_1_234
10
6.4298611
20
21.709289
40
0.1833454
50
311.9916004
51
351.7143462
0
ARC
8
DEFAULT_255_1_234
10
6.3481841
20
21.725793
40
0.2665871
50
350.7339597
51
0.2221581
0
ARC
8
DEFAULT_255_1_234
10
6.3374287
20
21.7314467
40
0.2773789
50
359.0456241
51
17.2296242
0
ARC
8
DEFAULT_255_1_234
10
6.4413404
20
21.7623163
40
0.1689915
50
17.6685481
51
78.9940892
0
ARC
8
DEFAULT_255_1_234
10
6.3896568
20
21.5768224
40
0.3612658
50
76.5635957
51
90.6980921
0
LINE
8
DEFAULT_255_1_234
10
6.3852552
20
21.9380613
11
6.3850614
21
21.9380614
0
ARC
8
DEFAULT_255_1_234
10
6.3632228
20
22.3903036
40
0.3285612
50
269.6064736
51
281.4533503
0
ARC
8
DEFAULT_255_1_234
10
6.3855048
20
22.2851688
40
0.2210975
50
281.2041486
51
302.5148063
0
ARC
8
DEFAULT_255_1_234
10
6.3991898
20
22.2605241
40
0.1929674
50
303.021671
51
309.8369575
0
ARC
8
DEFAULT_255_1_234
10
6.4175359
20
22.2399488
40
0.1654181
50
309.5228395
51
356.9509836
0
ARC
8
DEFAULT_255_1_234
10
6.3511942
20
22.2494932
40
0.2322512
50
355.4701227
51
0.0492546
0
ARC
8
DEFAULT_255_1_234
10
6.3233033
20
22.2517094
40
0.2601498
50
359.5558597
51
11.2096359
0
ARC
8
DEFAULT_255_1_234
10
6.4190323
20
22.271523
40
0.1623975
50
10.9182341
51
31.3230275
0
ARC
8
DEFAULT_255_1_234
10
6.4476056
20
22.2874214
40
0.1297302
50
31.8852677
51
52.1412565
0
ARC
8
DEFAULT_255_1_234
10
6.4201789
20
22.248675
40
0.1771663
50
52.8285564
51
71.9850297
0
ARC
8
DEFAULT_255_1_234
10
6.3825965
20
22.1380664
40
0.2939794
50
71.6863486
51
82.8455995
0
ARC
8
DEFAULT_255_1_234
10
6.3586501
20
21.9571149
40
0.476506
50
82.6984714
51
90.1729175
0
ARC
8
DEFAULT_255_1_234
10
6.3564136
20
22.0794623
40
0.3541573
50
89.8708275
51
90.0431131
0
LINE
8
DEFAULT_255_1_234
10
7.6805808
20
21.3911
11
7.4267778
21
21.8641694
0
LINE
8
DEFAULT_255_1_234
10
7.4267778
20
21.8641694
11
7.1520924
21
21.8641694
0
LINE
8
DEFAULT_255_1_234
10
7.1520924
20
21.8641694
11
7.1520924
21
21.3911
0
LINE
8
DEFAULT_255_1_234
10
7.1520924
20
21.3911
11
6.9970798
21
21.3911
0
LINE
8
DEFAULT_255_1_234
10
6.9970798
20
21.3911
11
6.9970798
21
22.5605211
0
LINE
8
DEFAULT_255_1_234
10
6.9970798
20
22.5605211
11
7.3842096
21
22.5605211
0
LINE
8
DEFAULT_255_1_234
10
7.5713491
20
21.8970995
11
7.8460346
21
21.4007381
0
LINE
8
DEFAULT_255_1_234
10
7.8460346
20
21.4007381
11
7.8460346
21
21.3911
0
LINE
8
DEFAULT_255_1_234
10
7.8460346
20
21.3911
11
7.6805808
21
21.3911
0
LINE
8
DEFAULT_255_1_234
10
7.1520924
20
22.4336196
11
7.1520924
21
21.9902677
0
LINE
8
DEFAULT_255_1_234
10
7.1520924
20
21.9902677
11
7.3890287
21
21.9902677
0
LINE
8
DEFAULT_255_1_234
10
7.3882255
20
22.4336196
11
7.1520924
21
22.4336196
0
ARC
8
DEFAULT_255_1_234
10
7.3883736
20
21.8643761
40
0.6961575
50
80.653586
51
90.3427061
0
ARC
8
DEFAULT_255_1_234
10
7.430321
20
22.1106348
40
0.4463577
50
65.6987447
51
80.8329603
0
ARC
8
DEFAULT_255_1_234
10
7.4780851
20
22.2201322
40
0.3269094
50
50.0017161
51
65.4305835
0
ARC
8
DEFAULT_255_1_234
10
7.4999315
20
22.2496482
40
0.2902647
50
11.628416
51
49.5603263
0
ARC
8
DEFAULT_255_1_234
10
7.3463651
20
22.2121299
40
0.4482792
50
359.5655735
51
12.3691
0
ARC
8
DEFAULT_255_1_234
10
7.4540511
20
22.2058644
40
0.3405924
50
341.9983148
51
0.4822259
0
ARC
8
DEFAULT_255_1_234
10
7.4935351
20
22.1951471
40
0.2997359
50
323.8609373
51
341.61416
0
ARC
8
DEFAULT_255_1_234
10
7.4633595
20
22.2184484
40
0.3378487
50
296.7018614
51
323.6876402
0
ARC
8
DEFAULT_255_1_234
10
7.4192491
20
22.2973235
40
0.4281516
50
290.8086567
51
297.2323311
0
ARC
8
DEFAULT_255_1_234
10
7.391602
20
22.3496351
40
0.3593766
50
269.589728
51
281.8058135
0
ARC
8
DEFAULT_255_1_234
10
7.4166919
20
22.2348743
40
0.2419125
50
281.5501019
51
303.9357432
0
ARC
8
DEFAULT_255_1_234
10
7.4304107
20
22.2110936
40
0.2145323
50
304.4415616
51
311.2106213
0
ARC
8
DEFAULT_255_1_234
10
7.4436212
20
22.1971632
40
0.1953505
50
310.9875673
51
356.2715578
0
ARC
8
DEFAULT_255_1_234
10
7.3679861
20
22.2084422
40
0.2716331
50
354.9348262
51
0.0609027
0
ARC
8
DEFAULT_255_1_234
10
7.3492735
20
22.2111435
40
0.2903554
50
359.5239371
51
12.8808918
0
ARC
8
DEFAULT_255_1_234
10
7.4470291
20
22.2350728
40
0.1897315
50
12.4173452
51
43.1022135
0
ARC
8
DEFAULT_255_1_234
10
7.4531895
20
22.2387724
40
0.1827118
50
43.5751728
51
48.203944
0
ARC
8
DEFAULT_255_1_234
10
7.4362387
20
22.2166302
40
0.2105272
50
48.7809703
51
72.6969569
0
ARC
8
DEFAULT_255_1_234
10
7.4008012
20
22.109082
40
0.3237537
50
72.3702241
51
84.8791103
0
ARC
8
DEFAULT_255_1_234
10
7.3860488
20
21.9748769
40
0.4587478
50
84.5400526
51
89.7281406
0
LINE
8
DEFAULT_255_1_234
10
19.5992392
20
11.3872
11
19.1936364
21
11.3872
0
LINE
8
DEFAULT_255_1_234
10
19.1936364
20
11.3872
11
19.1936364
21
12.5566211
0
LINE
8
DEFAULT_255_1_234
10
19.1936364
20
12.5566211
11
19.5759471
21
12.5566211
0
LINE
8
DEFAULT_255_1_234
10
19.6048614
20
11.9341614
11
19.3478458
21
11.9341614
0
LINE
8
DEFAULT_255_1_234
10
19.3478458
20
11.9341614
11
19.3478458
21
11.5132983
0
LINE
8
DEFAULT_255_1_234
10
19.3478458
20
11.5132983
11
19.6024519
21
11.5132983
0
LINE
8
DEFAULT_255_1_234
10
19.3478458
20
12.4297196
11
19.3478458
21
12.0578501
0
LINE
8
DEFAULT_255_1_234
10
19.3478458
20
12.0578501
11
19.5807662
21
12.0578501
0
LINE
8
DEFAULT_255_1_234
10
19.5759471
20
12.4297196
11
19.3478458
21
12.4297196
0
ARC
8
DEFAULT_255_1_234
10
19.579718
20
11.8198901
40
0.7367406
50
82.1257326
51
90.2932599
0
ARC
8
DEFAULT_255_1_234
10
19.6186135
20
12.0917013
40
0.4621653
50
69.9044149
51
82.2857423
0
ARC
8
DEFAULT_255_1_234
10
19.6756813
20
12.2459637
40
0.2976871
50
51.1838526
51
70.0181538
0
ARC
8
DEFAULT_255_1_234
10
19.7011779
20
12.283024
40
0.2528517
50
12.1017251
51
50.4214761
0
ARC
8
DEFAULT_255_1_234
10
19.5627653
20
12.2482676
40
0.3955061
50
359.5251267
51
12.8211707
0
ARC
8
DEFAULT_255_1_234
10
19.7207579
20
12.2413344
40
0.2375281
50
323.4908128
51
0.8817314
0
ARC
8
DEFAULT_255_1_234
10
19.6789266
20
12.273655
40
0.2903817
50
298.6825083
51
323.2756573
0
ARC
8
DEFAULT_255_1_234
10
19.6427629
20
12.3337649
40
0.3604842
50
293.1999386
51
299.1396394
0
ARC
8
DEFAULT_255_1_234
10
19.7100602
20
11.7252126
40
0.2871098
50
54.0011765
51
74.9167975
0
ARC
8
DEFAULT_255_1_234
10
19.7216961
20
11.7449332
40
0.2643248
50
36.3580696
51
53.5291921
0
ARC
8
DEFAULT_255_1_234
10
19.7090203
20
11.7358998
40
0.2798884
50
4.8189881
51
36.3089977
0
ARC
8
DEFAULT_255_1_234
10
19.6311038
20
11.724927
40
0.358478
50
359.9370252
51
5.5204067
0
ARC
8
DEFAULT_255_1_234
10
19.598656
20
11.7208667
40
0.3909429
50
344.7478609
51
0.5373281
0
ARC
8
DEFAULT_255_1_234
10
19.6977531
20
11.6941544
40
0.2883093
50
311.1786488
51
344.6886812
0
ARC
8
DEFAULT_255_1_234
10
19.6685578
20
11.7304987
40
0.3348923
50
286.0418249
51
310.8441291
0
ARC
8
DEFAULT_255_1_234
10
19.617841
20
11.8951807
40
0.5071869
50
274.1042341
51
286.4071509
0
ARC
8
DEFAULT_255_1_234
10
19.6001666
20
12.0835229
40
0.6963234
50
269.9236873
51
274.445647
0
ARC
8
DEFAULT_255_1_234
10
19.6047667
20
11.8495537
40
0.3362634
50
269.6055768
51
281.3740047
0
ARC
8
DEFAULT_255_1_234
10
19.6278305
20
11.7402353
40
0.224546
50
281.1055983
51
302.5132223
0
ARC
8
DEFAULT_255_1_234
10
19.6425204
20
11.7138823
40
0.1944357
50
303.0368945
51
311.8811219
0
ARC
8
DEFAULT_255_1_234
10
19.6496611
20
11.705389
40
0.1833454
50
311.9916004
51
351.7143462
0
ARC
8
DEFAULT_255_1_234
10
19.5679841
20
11.721893
40
0.2665871
50
350.7339597
51
0.2221581
0
ARC
8
DEFAULT_255_1_234
10
19.5572287
20
11.7275467
40
0.2773789
50
359.0456241
51
17.2296242
0
ARC
8
DEFAULT_255_1_234
10
19.6611404
20
11.7584163
40
0.1689915
50
17.6685481
51
78.9940892
0
ARC
8
DEFAULT_255_1_234
10
19.6094568
20
11.5729224
40
0.3612658
50
76.5635957
51
90.6980921
0
LINE
8
DEFAULT_255_1_234
10
19.6050552
20
11.9341613
11
19.6048614
21
11.9341614
0
ARC
8
DEFAULT_255_1_234
10
19.5830228
20
12.3864036
40
0.3285612
50
269.6064736
51
281.4533503
0
ARC
8
DEFAULT_255_1_234
10
19.6053048
20
12.2812688
40
0.2210975
50
281.2041486
51
302.5148063
0
ARC
8
DEFAULT_255_1_234
10
19.6189898
20
12.2566241
40
0.1929674
50
303.021671
51
309.8369575
0
ARC
8
DEFAULT_255_1_234
10
19.6373359
20
12.2360488
40
0.1654181
50
309.5228395
51
356.9509836
0
ARC
8
DEFAULT_255_1_234
10
19.5709942
20
12.2455932
40
0.2322512
50
355.4701227
51
0.0492546
0
ARC
8
DEFAULT_255_1_234
10
19.5431033
20
12.2478094
40
0.2601498
50
359.5558597
51
11.2096359
0
ARC
8
DEFAULT_255_1_234
10
19.6388323
20
12.267623
40
0.1623975
50
10.9182341
51
31.3230275
0
ARC
8
DEFAULT_255_1_234
10
19.6674056
20
12.2835214
40
0.1297302
50
31.8852677
51
52.1412565
0
ARC
8
DEFAULT_255_1_234
10
19.6399789
20
12.244775
40
0.1771663
50
52.8285564
51
71.9850297
0
ARC
8
DEFAULT_255_1_234
10
19.6023965
20
12.1341664
40
0.2939794
50
71.6863486
51
82.8455995
0
ARC
8
DEFAULT_255_1_234
10
19.5784501
20
11.9532149
40
0.476506
50
82.6984714
51
90.1729175
0
ARC
8
DEFAULT_255_1_234
10
19.5762136
20
12.0755623
40
0.3541573
50
89.8708275
51
90.0431131
0
LINE
8
DEFAULT_255_1_234
10
20.929295
20
11.3872
11
20.5148573
21
11.9309487
0
LINE
8
DEFAULT_255_1_234
10
20.5148573
20
11.9309487
11
20.3718924
21
11.7823615
0
LINE
8
DEFAULT_255_1_234
10
20.3718924
20
11.7823615
11
20.3718924
21
11.3872
0
LINE
8
DEFAULT_255_1_234
10
20.3718924
20
11.3872
11
20.217683
21
11.3872
0
LINE
8
DEFAULT_255_1_234
10
20.217683
20
11.3872
11
20.217683
21
12.5566211
0
LINE
8
DEFAULT_255_1_234
10
20.217683
20
12.5566211
11
20.3718924
21
12.5566211
0
LINE
8
DEFAULT_255_1_234
10
20.3718924
20
12.5566211
11
20.3718924
21
11.9783359
0
LINE
8
DEFAULT_255_1_234
10
20.3718924
20
11.9783359
11
20.8915458
21
12.5566211
0
LINE
8
DEFAULT_255_1_234
10
20.8915458
20
12.5566211
11
21.0778822
21
12.5566211
0
LINE
8
DEFAULT_255_1_234
10
21.0778822
20
12.5566211
11
20.6176636
21
12.0401803
0
LINE
8
DEFAULT_255_1_234
10
20.6176636
20
12.0401803
11
21.114025
21
11.3872
0
LINE
8
DEFAULT_255_1_234
10
21.114025
20
11.3872
11
20.929295
21
11.3872
0
LINE
8
DEFAULT_255_1_234
10
6.5491392
20
-1.842
11
6.1435364
21
-1.842
0
LINE
8
DEFAULT_255_1_234
10
6.1435364
20
-1.842
11
6.1435364
21
-0.6725789
0
LINE
8
DEFAULT_255_1_234
10
6.1435364
20
-0.6725789
11
6.5258471
21
-0.6725789
0
LINE
8
DEFAULT_255_1_234
10
6.5547614
20
-1.2950386
11
6.2977458
21
-1.2950386
0
LINE
8
DEFAULT_255_1_234
10
6.2977458
20
-1.2950386
11
6.2977458
21
-1.7159017
0
LINE
8
DEFAULT_255_1_234
10
6.2977458
20
-1.7159017
11
6.5523519
21
-1.7159017
0
LINE
8
DEFAULT_255_1_234
10
6.2977458
20
-0.7994804
11
6.2977458
21
-1.1713499
0
LINE
8
DEFAULT_255_1_234
10
6.2977458
20
-1.1713499
11
6.5306662
21
-1.1713499
0
LINE
8
DEFAULT_255_1_234
10
6.5258471
20
-0.7994804
11
6.2977458
21
-0.7994804
0
ARC
8
DEFAULT_255_1_234
10
6.529618
20
-1.4093099
40
0.7367406
50
82.1257326
51
90.2932599
0
ARC
8
DEFAULT_255_1_234
10
6.5685135
20
-1.1374987
40
0.4621653
50
69.9044149
51
82.2857423
0
ARC
8
DEFAULT_255_1_234
10
6.6255813
20
-0.9832363
40
0.2976871
50
51.1838526
51
70.0181538
0
ARC
8
DEFAULT_255_1_234
10
6.6510779
20
-0.946176
40
0.2528517
50
12.1017251
51
50.4214761
0
ARC
8
DEFAULT_255_1_234
10
6.5126653
20
-0.9809324
40
0.3955061
50
359.5251267
51
12.8211707
0
ARC
8
DEFAULT_255_1_234
10
6.6706579
20
-0.9878656
40
0.2375281
50
323.4908128
51
0.8817314
0
ARC
8
DEFAULT_255_1_234
10
6.6288266
20
-0.955545
40
0.2903817
50
298.6825083
51
323.2756573
0
ARC
8
DEFAULT_255_1_234
10
6.5926629
20
-0.8954351
40
0.3604842
50
293.1999386
51
299.1396394
0
ARC
8
DEFAULT_255_1_234
10
6.6599602
20
-1.5039874
40
0.2871098
50
54.0011765
51
74.9167975
0
ARC
8
DEFAULT_255_1_234
10
6.6715961
20
-1.4842668
40
0.2643248
50
36.3580696
51
53.5291921
0
ARC
8
DEFAULT_255_1_234
10
6.6589203
20
-1.4933002
40
0.2798884
50
4.8189881
51
36.3089977
0
ARC
8
DEFAULT_255_1_234
10
6.5810038
20
-1.504273
40
0.358478
50
359.9370252
51
5.5204067
0
ARC
8
DEFAULT_255_1_234
10
6.548556
20
-1.5083333
40
0.3909429
50
344.7478609
51
0.5373281
0
ARC
8
DEFAULT_255_1_234
10
6.6476531
20
-1.5350456
40
0.2883093
50
311.1786488
51
344.6886812
0
ARC
8
DEFAULT_255_1_234
10
6.6184578
20
-1.4987013
40
0.3348923
50
286.0418249
51
310.8441291
0
ARC
8
DEFAULT_255_1_234
10
6.567741
20
-1.3340193
40
0.5071869
50
274.1042341
51
286.4071509
0
ARC
8
DEFAULT_255_1_234
10
6.5500666
20
-1.1456771
40
0.6963234
50
269.9236873
51
274.445647
0
ARC
8
DEFAULT_255_1_234
10
6.5546667
20
-1.3796463
40
0.3362634
50
269.6055768
51
281.3740047
0
ARC
8
DEFAULT_255_1_234
10
6.5777305
20
-1.4889647
40
0.224546
50
281.1055983
51
302.5132223
0
ARC
8
DEFAULT_255_1_234
10
6.5924204
20
-1.5153177
40
0.1944357
50
303.0368945
51
311.8811219
0
ARC
8
DEFAULT_255_1_234
10
6.5995611
20
-1.523811
40
0.1833454
50
311.9916004
51
351.7143462
0
ARC
8
DEFAULT_255_1_234
10
6.5178841
20
-1.507307
40
0.2665871
50
350.7339597
51
0.2221581
0
ARC
8
DEFAULT_255_1_234
10
6.5071287
20
-1.5016533
40
0.2773789
50
359.0456241
51
17.2296242
0
ARC
8
DEFAULT_255_1_234
10
6.6110404
20
-1.4707837
40
0.1689915
50
17.6685481
51
78.9940892
0
ARC
8
DEFAULT_255_1_234
10
6.5593568
20
-1.6562776
40
0.3612658
50
76.5635957
51
90.6980921
0
LINE
8
DEFAULT_255_1_234
10
6.5549552
20
-1.2950387
11
6.5547614
21
-1.2950386
0
ARC
8
DEFAULT_255_1_234
10
6.5329228
20
-0.8427964
40
0.3285612
50
269.6064736
51
281.4533503
0
ARC
8
DEFAULT_255_1_234
10
6.5552048
20
-0.9479312
40
0.2210975
50
281.2041486
51
302.5148063
0
ARC
8
DEFAULT_255_1_234
10
6.5688898
20
-0.9725759
40
0.1929674
50
303.021671
51
309.8369575
0
ARC
8
DEFAULT_255_1_234
10
6.5872359
20
-0.9931512
40
0.1654181
50
309.5228395
51
356.9509836
0
ARC
8
DEFAULT_255_1_234
10
6.5208942
20
-0.9836068
40
0.2322512
50
355.4701227
51
0.0492546
0
ARC
8
DEFAULT_255_1_234
10
6.4930033
20
-0.9813906
40
0.2601498
50
359.5558597
51
11.2096359
0
ARC
8
DEFAULT_255_1_234
10
6.5887323
20
-0.961577
40
0.1623975
50
10.9182341
51
31.3230275
0
ARC
8
DEFAULT_255_1_234
10
6.6173056
20
-0.9456786
40
0.1297302
50
31.8852677
51
52.1412565
0
ARC
8
DEFAULT_255_1_234
10
6.5898789
20
-0.984425
40
0.1771663
50
52.8285564
51
71.9850297
0
ARC
8
DEFAULT_255_1_234
10
6.5522965
20
-1.0950336
40
0.2939794
50
71.6863486
51
82.8455995
0
ARC
8
DEFAULT_255_1_234
10
6.5283501
20
-1.2759851
40
0.476506
50
82.6984714
51
90.1729175
0
ARC
8
DEFAULT_255_1_234
10
6.5261136
20
-1.1536377
40
0.3541573
50
89.8708275
51
90.0431131
0
LINE
8
DEFAULT_255_1_234
10
7.3225956
20
-0.6725789
11
7.3225956
21
-1.7159017
0
LINE
8
DEFAULT_255_1_234
10
7.3225956
20
-1.7159017
11
7.8767855
21
-1.7159017
0
LINE
8
DEFAULT_255_1_234
10
7.8767855
20
-1.7159017
11
7.8767855
21
-1.842
0
LINE
8
DEFAULT_255_1_234
10
7.8767855
20
-1.842
11
7.167583
21
-1.842
0
LINE
8
DEFAULT_255_1_234
10
7.167583
20
-1.842
11
7.167583
21
-0.6725789
0
LINE
8
DEFAULT_255_1_234
10
7.167583
20
-0.6725789
11
7.3225956
21
-0.6725789
0
ENDSEC
0
EOF