0
SECTION
2
HEADER
9
$MEASUREMENT
70
1
0
ENDSEC
0
SECTION
2
TABLES
0
TABLE
2
LTYPE
0
LTYPE
72
65
70
64
2
CONTINUOUS
3
______
73
0
40
0
0
ENDTAB
0
TABLE
2
LAYER
0
LAYER
2
DEFAULT_255_2_778
70
0
62
255
6
CONTINUOUS
0
LAYER
2
DEFAULT_255_2_778_3
70
0
62
255
6
CONTINUOUS
0
LAYER
2
DEFAULT_255_1_234
70
0
62
255
6
CONTINUOUS
0
ENDTAB
0
ENDSEC
0
SECTION
2
ENTITIES
0
LINE
8
DEFAULT_255_2_778
10
10.8123
20
10.4510749
11
10.8123
21
6.4823749
0
LINE
8
DEFAULT_255_2_778
10
10.8123
20
1.1906749
11
10.8123
21
-2.7780251
0
LINE
8
DEFAULT_255_2_778_3
10
10.1508584
20
3.8365
11
8.2987584
21
3.8365
0
LINE
8
DEFAULT_255_2_778
10
6.9097
20
4.6301833
11
6.9097
21
5.1593833
0
ARC
8
DEFAULT_255_2_778
10
6.9183399
20
4.7253623
40
1.6494085
50
279.7043271
51
327.3904313
0
ARC
8
DEFAULT_255_2_778
10
6.9150031
20
4.7523497
40
1.6765728
50
269.9739096
51
279.6612655
0
ARC
8
DEFAULT_255_2_778
10
6.9110497
20
4.7287718
40
1.6529978
50
243.5776325
51
270.1105669
0
ARC
8
DEFAULT_255_2_778
10
6.9126119
20
4.7279848
40
1.6529891
50
212.6380864
51
243.5170025
0
ARC
8
DEFAULT_255_2_778
10
6.9098231
20
2.9479108
40
1.6490545
50
99.6967473
51
147.3957144
0
ARC
8
DEFAULT_255_2_778
10
6.9134693
20
2.9197343
40
1.677443
50
89.9736891
51
99.6574086
0
ARC
8
DEFAULT_255_2_778
10
6.9174372
20
2.9442839
40
1.6528962
50
63.5794206
51
90.1108399
0
ARC
8
DEFAULT_255_2_778
10
6.915989
20
2.9453213
40
1.6526126
50
32.631955
51
63.5184523
0
LINE
8
DEFAULT_255_2_778
10
8.3077396
20
3.8364771
11
8.3077396
21
3.8364771
0
LINE
8
DEFAULT_255_2_778
10
9.4893417
20
6.4823333
11
10.8122417
21
1.1906333
0
LINE
8
DEFAULT_255_1_234
10
7.3084137
20
9.3370433
11
7.3084137
21
8.162
0
LINE
8
DEFAULT_255_1_234
10
7.3084137
20
8.162
11
7.1590234
21
8.162
0
LINE
8
DEFAULT_255_1_234
10
7.1590234
20
8.162
11
7.1590234
21
9.1523133
0
LINE
8
DEFAULT_255_1_234
10
7.1590234
20
9.1523133
11
6.8594396
21
9.0422785
0
LINE
8
DEFAULT_255_1_234
10
6.8594396
20
9.0422785
11
6.8594396
21
9.1772117
0
LINE
8
DEFAULT_255_1_234
10
6.8594396
20
9.1772117
11
7.2851217
21
9.3370433
0
LINE
8
DEFAULT_255_1_234
10
7.2851217
20
9.3370433
11
7.3084137
21
9.3370433
0
LINE
8
DEFAULT_255_1_234
10
7.9597877
20
8.6977169
11
7.9597877
21
8.8189962
0
LINE
8
DEFAULT_255_1_234
10
7.9597877
20
8.8189962
11
8.0714289
21
8.8189962
0
LINE
8
DEFAULT_255_1_234
10
7.8810767
20
9.0246087
11
7.7324895
21
9.0246087
0
LINE
8
DEFAULT_255_1_234
10
7.7220482
20
8.4704188
11
7.8714386
21
8.4704188
0
LINE
8
DEFAULT_255_1_234
10
8.0714289
20
8.6977169
11
7.9597877
21
8.6977169
0
ARC
8
DEFAULT_255_1_234
10
8.0685155
20
9.1582713
40
0.3392876
50
270.4919872
51
281.8951556
0
ARC
8
DEFAULT_255_1_234
10
8.0926417
20
9.0480702
40
0.2264817
50
281.6691735
51
301.2943132
0
ARC
8
DEFAULT_255_1_234
10
8.1096627
20
9.0169304
40
0.1910381
50
301.7833094
51
311.7545298
0
ARC
8
DEFAULT_255_1_234
10
8.1188203
20
9.0067748
40
0.1773635
50
311.7323931
51
354.2802411
0
ARC
8
DEFAULT_255_1_234
10
8.0461828
20
9.0192722
40
0.2509385
50
353.0937916
51
0.1181479
0
ARC
8
DEFAULT_255_1_234
10
8.0000613
20
9.0240386
40
0.2970898
50
359.1805295
51
15.0453146
0
ARC
8
DEFAULT_255_1_234
10
8.134645
20
9.0632992
40
0.1569564
50
13.9577229
51
77.6713066
0
ARC
8
DEFAULT_255_1_234
10
8.0959979
20
8.9247949
40
0.3006298
50
76.1116566
51
90.7026153
0
ARC
8
DEFAULT_255_1_234
10
8.0900817
20
8.9521545
40
0.2732568
50
89.5324876
51
103.531937
0
ARC
8
DEFAULT_255_1_234
10
8.0700261
20
9.0320884
40
0.1908508
50
103.2931773
51
133.5619022
0
ARC
8
DEFAULT_255_1_234
10
8.065575
20
9.0380375
40
0.1834746
50
133.8349307
51
173.5344437
0
ARC
8
DEFAULT_255_1_234
10
8.1378793
20
9.0252213
40
0.2568033
50
172.5096846
51
180.1366907
0
ARC
8
DEFAULT_255_1_234
10
8.0427687
20
9.0286622
40
0.3103056
50
155.3484492
51
180.7484736
0
ARC
8
DEFAULT_255_1_234
10
8.0378776
20
9.0257846
40
0.3070957
50
131.5744599
51
154.4798489
0
ARC
8
DEFAULT_255_1_234
10
8.0691923
20
8.994131
40
0.3515643
50
96.9875458
51
131.9690667
0
ARC
8
DEFAULT_255_1_234
10
8.0911403
20
8.8695636
40
0.4779224
50
89.8596053
51
97.7825159
0
ARC
8
DEFAULT_255_1_234
10
8.0959466
20
8.8433616
40
0.5041361
50
78.3655447
51
90.4131539
0
ARC
8
DEFAULT_255_1_234
10
8.1317384
20
9.0092887
40
0.3344039
50
56.6229102
51
78.638727
0
ARC
8
DEFAULT_255_1_234
10
8.1532328
20
9.0468805
40
0.2912001
50
47.0253525
51
56.0854072
0
ARC
8
DEFAULT_255_1_234
10
8.1552108
20
9.0508223
40
0.2869704
50
10.9208013
51
46.7778124
0
ARC
8
DEFAULT_255_1_234
10
8.0188174
20
9.0192857
40
0.426899
50
359.6364486
51
11.6087304
0
ARC
8
DEFAULT_255_1_234
10
8.2023018
20
9.0177752
40
0.243409
50
332.3549906
51
359.7179418
0
ARC
8
DEFAULT_255_1_234
10
8.137262
20
9.0486142
40
0.3153459
50
325.2333722
51
332.8745602
0
ARC
8
DEFAULT_255_1_234
10
8.1525244
20
9.0379828
40
0.2967456
50
292.9802137
51
325.2392345
0
ARC
8
DEFAULT_255_1_234
10
8.1250617
20
9.0913863
40
0.3566604
50
292.5402179
51
293.6924929
0
ARC
8
DEFAULT_255_1_234
10
8.1643213
20
8.4459091
40
0.3307468
50
57.6435486
51
72.8625112
0
ARC
8
DEFAULT_255_1_234
10
8.1997713
20
8.5033549
40
0.2632492
50
36.7248896
51
57.4697979
0
ARC
8
DEFAULT_255_1_234
10
8.1986346
20
8.504622
40
0.2634081
50
8.0545065
51
36.356114
0
ARC
8
DEFAULT_255_1_234
10
8.1123531
20
8.4891174
40
0.3510261
50
359.8320645
51
8.5869982
0
ARC
8
DEFAULT_255_1_234
10
8.0748307
20
8.4843101
40
0.3885653
50
343.9829931
51
0.5571613
0
ARC
8
DEFAULT_255_1_234
10
8.1634504
20
8.4600438
40
0.2966924
50
311.6359546
51
343.7651759
0
ARC
8
DEFAULT_255_1_234
10
8.1256074
20
8.5027102
40
0.3537231
50
279.7829875
51
311.6255694
0
ARC
8
DEFAULT_255_1_234
10
8.095485
20
8.646428
40
0.5004971
50
269.7286406
51
280.3856417
0
ARC
8
DEFAULT_255_1_234
10
8.0892922
20
8.6422996
40
0.4963778
50
256.6828919
51
270.4412052
0
ARC
8
DEFAULT_255_1_234
10
8.0554218
20
8.5038394
40
0.3538406
50
229.4223008
51
256.8556159
0
ARC
8
DEFAULT_255_1_234
10
8.0139611
20
8.4571736
40
0.2914296
50
181.818294
51
229.6455059
0
ARC
8
DEFAULT_255_1_234
10
8.1179567
20
8.4702496
40
0.3959084
50
179.9755256
51
183.2323064
0
ARC
8
DEFAULT_255_1_234
10
8.1007313
20
8.4682037
40
0.2293034
50
179.4465117
51
196.2869258
0
ARC
8
DEFAULT_255_1_234
10
8.0519721
20
8.4548651
40
0.1787621
50
196.5661473
51
227.705904
0
ARC
8
DEFAULT_255_1_234
10
8.0683816
20
8.4732155
40
0.2033784
50
227.7652068
51
257.8762805
0
ARC
8
DEFAULT_255_1_234
10
8.0908786
20
8.5675156
40
0.3003081
50
257.4584385
51
270.426602
0
ARC
8
DEFAULT_255_1_234
10
8.0954352
20
8.5964996
40
0.329292
50
269.5962073
51
280.8789248
0
ARC
8
DEFAULT_255_1_234
10
8.1183881
20
8.4818685
40
0.2123908
50
280.6346389
51
299.8595945
0
ARC
8
DEFAULT_255_1_234
10
8.1374788
20
8.4456212
40
0.171457
50
300.3576302
51
314.5517981
0
ARC
8
DEFAULT_255_1_234
10
8.1291848
20
8.4516919
40
0.1816095
50
315.0728369
51
345.0431014
0
ARC
8
DEFAULT_255_1_234
10
8.0368662
20
8.4785841
40
0.2777492
50
344.5986631
51
357.9269593
0
ARC
8
DEFAULT_255_1_234
10
7.9472989
20
8.4847276
40
0.3674917
50
357.4748886
51
0.0231117
0
ARC
8
DEFAULT_255_1_234
10
8.0496098
20
8.4871679
40
0.2651907
50
359.5047933
51
13.4239635
0
ARC
8
DEFAULT_255_1_234
10
8.1362741
20
8.5093478
40
0.1757509
50
12.9498199
51
48.7551375
0
ARC
8
DEFAULT_255_1_234
10
8.1180475
20
8.48444
40
0.2065134
50
49.5088623
51
72.1836453
0
ARC
8
DEFAULT_255_1_234
10
8.0822628
20
8.3782291
40
0.3185836
50
71.9010081
51
84.3554254
0
ARC
8
DEFAULT_255_1_234
10
8.066126
20
8.2421326
40
0.4556151
50
84.0193428
51
89.333121
0
LINE
8
DEFAULT_255_1_234
10
7.2026137
20
-0.6668567
11
7.2026137
21
-1.8419
0
LINE
8
DEFAULT_255_1_234
10
7.2026137
20
-1.8419
11
7.0532234
21
-1.8419
0
LINE
8
DEFAULT_255_1_234
10
7.0532234
20
-1.8419
11
7.0532234
21
-0.8515867
0
LINE
8
DEFAULT_255_1_234
10
7.0532234
20
-0.8515867
11
6.7536396
21
-0.9616215
0
LINE
8
DEFAULT_255_1_234
10
6.7536396
20
-0.9616215
11
6.7536396
21
-0.8266883
0
LINE
8
DEFAULT_255_1_234
10
6.7536396
20
-0.8266883
11
7.1793217
21
-0.6668567
0
LINE
8
DEFAULT_255_1_234
10
7.1793217
20
-0.6668567
11
7.2026137
21
-0.6668567
0
LINE
8
DEFAULT_255_1_234
10
8.2652127
20
-0.6724789
11
8.2652127
21
-1.449148
0
LINE
8
DEFAULT_255_1_234
10
8.2652127
20
-1.449148
11
8.4274538
21
-1.449148
0
LINE
8
DEFAULT_255_1_234
10
8.4274538
20
-1.449148
11
8.4274538
21
-1.5704272
0
LINE
8
DEFAULT_255_1_234
10
8.4274538
20
-1.5704272
11
8.2652127
21
-1.5704272
0
LINE
8
DEFAULT_255_1_234
10
8.2652127
20
-1.5704272
11
8.2652127
21
-1.8419
0
LINE
8
DEFAULT_255_1_234
10
8.2652127
20
-1.8419
11
8.1158224
21
-1.8419
0
LINE
8
DEFAULT_255_1_234
10
8.1158224
20
-1.8419
11
8.1158224
21
-1.5704272
0
LINE
8
DEFAULT_255_1_234
10
8.1158224
20
-1.5704272
11
7.5833181
21
-1.5704272
0
LINE
8
DEFAULT_255_1_234
10
7.5833181
20
-1.5704272
11
7.5833181
21
-1.4828813
0
LINE
8
DEFAULT_255_1_234
10
7.5833181
20
-1.4828813
11
8.1069875
21
-0.6724789
0
LINE
8
DEFAULT_255_1_234
10
8.1069875
20
-0.6724789
11
8.2652127
21
-0.6724789
0
LINE
8
DEFAULT_255_1_234
10
8.0981525
20
-0.9078088
11
7.7519846
21
-1.449148
0
LINE
8
DEFAULT_255_1_234
10
7.7519846
20
-1.449148
11
8.1158224
21
-1.449148
0
LINE
8
DEFAULT_255_1_234
10
8.1158224
20
-1.449148
11
8.1158224
21
-0.8756819
0
LINE
8
DEFAULT_255_1_234
10
8.1158224
20
-0.8756819
11
8.0981525
21
-0.9078088
0
ENDSEC
0
EOF