0
SECTION
2
HEADER
9
$MEASUREMENT
70
1
0
ENDSEC
0
SECTION
2
TABLES
0
TABLE
2
LTYPE
0
LTYPE
72
65
70
64
2
CONTINUOUS
3
______
73
0
40
0
0
ENDTAB
0
TABLE
2
LAYER
0
LAYER
2
DEFAULT_255_2_778
70
0
62
255
6
CONTINUOUS
0
LAYER
2
DEFAULT_255_2_778_3
70
0
62
255
6
CONTINUOUS
0
LAYER
2
DEFAULT_255_1_234
70
0
62
255
6
CONTINUOUS
0
ENDTAB
0
ENDSEC
0
SECTION
2
ENTITIES
0
LINE
8
DEFAULT_255_2_778
10
8.60815
20
1.1906749
11
10.19565
21
1.1906749
0
LINE
8
DEFAULT_255_2_778
10
10.19565
20
1.1906749
11
10.19565
21
-2.7780251
0
LINE
8
DEFAULT_255_2_778
10
4.904
20
-2.7780251
11
4.904
21
1.1906749
0
ARC
8
DEFAULT_255_2_778
10
6.3074341
20
3.8339745
40
1.2423506
50
359.995663
51
0.117302
0
ARC
8
DEFAULT_255_2_778
10
6.2298873
20
3.8337399
40
1.3198973
50
314.9930252
51
0.0061026
0
ARC
8
DEFAULT_255_2_778
10
6.2296601
20
3.8335127
40
1.3198973
50
269.9938974
51
315.0069748
0
ARC
8
DEFAULT_255_2_778
10
6.2294255
20
3.7559659
40
1.2423506
50
269.882698
51
270.004337
0
ARC
8
DEFAULT_255_2_778
10
6.2247761
20
3.8303003
40
1.316684
50
237.3211861
51
270.0916398
0
ARC
8
DEFAULT_255_2_778
10
6.2266878
20
3.8363504
40
1.3228095
50
186.5640329
51
237.3929792
0
ARC
8
DEFAULT_255_2_778
10
6.2409681
20
3.8362517
40
1.336986
50
179.9885895
51
186.4898767
0
ARC
8
DEFAULT_255_2_778
10
6.2206643
20
3.8386239
40
1.316684
50
147.3211861
51
180.0916398
0
ARC
8
DEFAULT_255_2_778
10
6.2267144
20
3.8367122
40
1.3228095
50
96.5640329
51
147.3929792
0
ARC
8
DEFAULT_255_2_778
10
6.2266157
20
3.8224319
40
1.336986
50
89.9885895
51
96.4898767
0
LINE
8
DEFAULT_255_2_778
10
6.226882
20
5.159418
11
6.226882
21
3.836518
0
LINE
8
DEFAULT_255_2_778
10
6.226882
20
3.836518
11
7.549782
21
3.836518
0
LINE
8
DEFAULT_255_2_778_3
10
9.6664417
20
3.8365
11
8.3435417
21
3.8365
0
LINE
8
DEFAULT_255_2_778
10
10.1955781
20
10.4510749
11
10.1955781
21
6.4823749
0
LINE
8
DEFAULT_255_2_778
10
10.1955781
20
6.4823749
11
8.9057781
21
0.1323749
0
LINE
8
DEFAULT_255_1_234
10
6.6917137
20
9.3370433
11
6.6917137
21
8.162
0
LINE
8
DEFAULT_255_1_234
10
6.6917137
20
8.162
11
6.5423234
21
8.162
0
LINE
8
DEFAULT_255_1_234
10
6.5423234
20
8.162
11
6.5423234
21
9.1523133
0
LINE
8
DEFAULT_255_1_234
10
6.5423234
20
9.1523133
11
6.2427396
21
9.0422785
0
LINE
8
DEFAULT_255_1_234
10
6.2427396
20
9.0422785
11
6.2427396
21
9.1772117
0
LINE
8
DEFAULT_255_1_234
10
6.2427396
20
9.1772117
11
6.6684217
21
9.3370433
0
LINE
8
DEFAULT_255_1_234
10
6.6684217
20
9.3370433
11
6.6917137
21
9.3370433
0
LINE
8
DEFAULT_255_1_234
10
7.3141734
20
8.7177963
11
7.1953037
21
8.7483169
0
LINE
8
DEFAULT_255_1_234
10
7.1953037
20
8.7483169
11
7.2547386
21
9.3314211
0
LINE
8
DEFAULT_255_1_234
10
7.2547386
20
9.3314211
11
7.8539063
21
9.3314211
0
LINE
8
DEFAULT_255_1_234
10
7.8539063
20
9.3314211
11
7.8539063
21
9.1940784
0
LINE
8
DEFAULT_255_1_234
10
7.8539063
20
9.1940784
11
7.3808369
21
9.1940784
0
LINE
8
DEFAULT_255_1_234
10
7.3808369
20
9.1940784
11
7.3454972
21
8.8752184
0
LINE
8
DEFAULT_255_1_234
10
7.1535387
20
8.4696156
11
7.2940941
21
8.4696156
0
LINE
8
DEFAULT_255_1_234
10
7.353529
20
8.7499232
11
7.3141734
21
8.7177963
0
ARC
8
DEFAULT_255_1_234
10
7.5309756
20
8.557223
40
0.3681349
50
93.7182161
51
120.2538958
0
ARC
8
DEFAULT_255_1_234
10
7.5404019
20
8.4764394
40
0.449379
50
89.9660152
51
94.2496022
0
ARC
8
DEFAULT_255_1_234
10
7.5444753
20
8.5353549
40
0.390482
50
73.8043271
51
90.5585896
0
ARC
8
DEFAULT_255_1_234
10
7.567965
20
8.6211602
40
0.3015334
50
41.3071453
51
73.5430202
0
ARC
8
DEFAULT_255_1_234
10
7.5263477
20
8.5853324
40
0.3564457
50
13.5075983
51
41.2174222
0
ARC
8
DEFAULT_255_1_234
10
7.3621681
20
8.5423486
40
0.5261351
50
1.1331335
51
13.8829381
0
ARC
8
DEFAULT_255_1_234
10
7.221005
20
8.5347665
40
0.6674378
50
359.9919444
51
1.544251
0
ARC
8
DEFAULT_255_1_234
10
7.3486876
20
8.530628
40
0.5397702
50
347.8572367
51
0.4293338
0
ARC
8
DEFAULT_255_1_234
10
7.5237194
20
8.4909736
40
0.3603188
50
323.673004
51
348.1672506
0
ARC
8
DEFAULT_255_1_234
10
7.5531702
20
8.4730168
40
0.3259678
50
316.8171152
51
323.1492751
0
ARC
8
DEFAULT_255_1_234
10
7.5592891
20
8.469346
40
0.3189975
50
281.8396411
51
316.5457803
0
ARC
8
DEFAULT_255_1_234
10
7.5217155
20
8.6248762
40
0.4789527
50
269.5770101
51
282.4214771
0
ARC
8
DEFAULT_255_1_234
10
7.5145966
20
8.6035125
40
0.45759
50
256.2427136
51
270.4486331
0
ARC
8
DEFAULT_255_1_234
10
7.4846869
20
8.4835229
40
0.3339303
50
228.9023911
51
256.3314342
0
ARC
8
DEFAULT_255_1_234
10
7.4773101
20
8.4718746
40
0.32031
50
193.753695
51
228.5271154
0
ARC
8
DEFAULT_255_1_234
10
7.6011055
20
8.50818
40
0.4492253
50
184.924711
51
194.497588
0
ARC
8
DEFAULT_255_1_234
10
7.6203622
20
8.5117591
40
0.3289787
50
187.3600538
51
198.6732863
0
ARC
8
DEFAULT_255_1_234
10
7.5153916
20
8.4753674
40
0.217884
50
198.4451669
51
217.794479
0
ARC
8
DEFAULT_255_1_234
10
7.4858091
20
8.4544085
40
0.1816698
50
218.2887171
51
228.5612368
0
ARC
8
DEFAULT_255_1_234
10
7.4955878
20
8.4675963
40
0.1980329
50
228.9654866
51
258.1234728
0
ARC
8
DEFAULT_255_1_234
10
7.5161588
20
8.5556833
40
0.2884748
50
257.7258293
51
270.401361
0
ARC
8
DEFAULT_255_1_234
10
7.5206474
20
8.5111821
40
0.2439788
50
269.4204404
51
286.4209037
0
ARC
8
DEFAULT_255_1_234
10
7.5354962
20
8.4572657
40
0.1880666
50
286.7251356
51
320.600362
0
ARC
8
DEFAULT_255_1_234
10
7.4971787
20
8.4883595
40
0.2374121
50
320.6712579
51
344.5441685
0
ARC
8
DEFAULT_255_1_234
10
7.3815113
20
8.5223045
40
0.3579479
50
344.2412205
51
356.7357071
0
ARC
8
DEFAULT_255_1_234
10
7.2566262
20
8.5326444
40
0.4832297
50
356.3548756
51
0.0500261
0
ARC
8
DEFAULT_255_1_234
10
7.3902771
20
8.535765
40
0.3495889
50
359.5576869
51
12.953486
0
ARC
8
DEFAULT_255_1_234
10
7.4957668
20
8.5613434
40
0.2410532
50
12.6490276
51
41.6081334
0
ARC
8
DEFAULT_255_1_234
10
7.5188039
20
8.5809321
40
0.2108218
50
41.7850273
51
85.9892764
0
ARC
8
DEFAULT_255_1_234
10
7.5064776
20
8.4996462
40
0.2928454
50
84.6957577
51
90.0676183
0
ARC
8
DEFAULT_255_1_234
10
7.504126
20
8.4327716
40
0.3597255
50
89.6804936
51
99.1614436
0
ARC
8
DEFAULT_255_1_234
10
7.4835891
20
8.5555131
40
0.235281
50
98.9830931
51
113.8908934
0
ARC
8
DEFAULT_255_1_234
10
7.4606301
20
8.6096587
40
0.176479
50
114.1950727
51
127.3641004
0
LINE
8
DEFAULT_255_1_234
10
6.8174137
20
-0.6668567
11
6.8174137
21
-1.8419
0
LINE
8
DEFAULT_255_1_234
10
6.8174137
20
-1.8419
11
6.6680234
21
-1.8419
0
LINE
8
DEFAULT_255_1_234
10
6.6680234
20
-1.8419
11
6.6680234
21
-0.8515867
0
LINE
8
DEFAULT_255_1_234
10
6.6680234
20
-0.8515867
11
6.3684396
21
-0.9616215
0
LINE
8
DEFAULT_255_1_234
10
6.3684396
20
-0.9616215
11
6.3684396
21
-0.8266883
0
LINE
8
DEFAULT_255_1_234
10
6.3684396
20
-0.8266883
11
6.7941217
21
-0.6668567
0
LINE
8
DEFAULT_255_1_234
10
6.7941217
20
-0.6668567
11
6.8174137
21
-0.6668567
0
LINE
8
DEFAULT_255_1_234
10
7.8093334
20
-0.6716757
11
7.8358381
21
-0.6716757
0
LINE
8
DEFAULT_255_1_234
10
7.8358381
20
-0.6716757
11
7.8358381
21
-0.797774
0
LINE
8
DEFAULT_255_1_234
10
7.8358381
20
-0.797774
11
7.8085302
21
-0.797774
0
LINE
8
DEFAULT_255_1_234
10
7.2615688
20
-1.3969417
11
7.2615688
21
-1.3399164
0
LINE
8
DEFAULT_255_1_234
10
7.4109592
20
-1.3591925
11
7.4109592
21
-1.4138083
0
ARC
8
DEFAULT_255_1_234
10
7.813765
20
-1.2975545
40
0.4998079
50
90.6001036
51
104.514704
0
ARC
8
DEFAULT_255_1_234
10
7.7749166
20
-1.1530869
40
0.3502176
50
104.2855254
51
133.862935
0
ARC
8
DEFAULT_255_1_234
10
7.7912923
20
-1.163917
40
0.3693984
50
134.5302688
51
161.6210873
0
ARC
8
DEFAULT_255_1_234
10
7.9566112
20
-1.2222105
40
0.5446739
50
161.2849839
51
174.2076652
0
ARC
8
DEFAULT_255_1_234
10
8.0973049
20
-1.2416213
40
0.6866274
50
173.7810589
51
174.9254635
0
ARC
8
DEFAULT_255_1_234
10
7.6422881
20
-1.3799161
40
0.3033419
50
95.8330959
51
138.9954921
0
ARC
8
DEFAULT_255_1_234
10
7.6646237
20
-1.5077625
40
0.4328947
50
89.8753725
51
97.0544009
0
ARC
8
DEFAULT_255_1_234
10
7.6693703
20
-1.4242252
40
0.3493769
50
71.6407809
51
90.6240094
0
ARC
8
DEFAULT_255_1_234
10
7.6844276
20
-1.3687918
40
0.2920396
50
39.6367836
51
71.019018
0
ARC
8
DEFAULT_255_1_234
10
7.6207749
20
-1.4238002
40
0.3761538
50
10.658731
51
39.9043955
0
ARC
8
DEFAULT_255_1_234
10
7.4659832
20
-1.4574314
40
0.5345136
50
359.682601
51
11.132623
0
ARC
8
DEFAULT_255_1_234
10
7.4619963
20
-1.464499
40
0.5385081
50
347.2486944
51
0.4369317
0
ARC
8
DEFAULT_255_1_234
10
7.628744
20
-1.5046193
40
0.3670249
50
318.1409698
51
347.6118597
0
ARC
8
DEFAULT_255_1_234
10
7.6612433
20
-1.5313298
40
0.3250007
50
275.6342139
51
317.8248465
0
ARC
8
DEFAULT_255_1_234
10
7.6391544
20
-1.4013781
40
0.4565864
50
269.8874292
51
276.7917694
0
ARC
8
DEFAULT_255_1_234
10
7.6336615
20
-1.5039257
40
0.3540676
50
246.9140195
51
270.7437342
0
ARC
8
DEFAULT_255_1_234
10
7.6343005
20
-1.5181616
40
0.3412781
50
218.1665114
51
245.878116
0
ARC
8
DEFAULT_255_1_234
10
7.7222466
20
-1.4445721
40
0.455911
50
191.4115814
51
218.6077802
0
ARC
8
DEFAULT_255_1_234
10
7.9160555
20
-1.4011167
40
0.6545001
50
179.6345085
51
191.7836486
0
ARC
8
DEFAULT_255_1_234
10
8.4742892
20
-1.3332303
40
1.2127388
50
171.4525249
51
180.3158839
0
ARC
8
DEFAULT_255_1_234
10
8.0347768
20
-1.2648392
40
0.7679464
50
157.9802646
51
171.6246686
0
ARC
8
DEFAULT_255_1_234
10
7.8133789
20
-1.1765579
40
0.5296008
50
141.4298019
51
157.854097
0
ARC
8
DEFAULT_255_1_234
10
7.7492109
20
-1.1311619
40
0.4511509
50
102.8715806
51
140.8564722
0
ARC
8
DEFAULT_255_1_234
10
7.8139725
20
-1.3751448
40
0.7034845
50
90.3778349
51
103.5869322
0
ARC
8
DEFAULT_255_1_234
10
7.6401501
20
-1.435627
40
0.2370698
50
89.8751008
51
126.2071704
0
ARC
8
DEFAULT_255_1_234
10
7.6447291
20
-1.4510697
40
0.2522934
50
124.9745049
51
144.895901
0
ARC
8
DEFAULT_255_1_234
10
7.6271481
20
-1.436744
40
0.2296779
50
145.2974905
51
160.2660252
0
ARC
8
DEFAULT_255_1_234
10
7.934402
20
-1.4169929
40
0.5234525
50
179.6514266
51
190.2855912
0
ARC
8
DEFAULT_255_1_234
10
7.7650157
20
-1.4489214
40
0.3510893
50
190.0945431
51
207.5098196
0
ARC
8
DEFAULT_255_1_234
10
7.7084427
20
-1.4758377
40
0.288489
50
207.9583163
51
216.3251085
0
ARC
8
DEFAULT_255_1_234
10
7.6744535
20
-1.5037895
40
0.2445587
50
215.7661442
51
232.5456785
0
ARC
8
DEFAULT_255_1_234
10
7.6361518
20
-1.5524518
40
0.1826382
50
232.8005391
51
270.6605633
0
ARC
8
DEFAULT_255_1_234
10
7.6407219
20
-1.5160388
40
0.2190529
50
269.35537
51
288.4744281
0
ARC
8
DEFAULT_255_1_234
10
7.6500116
20
-1.5509882
40
0.1829749
50
289.1833337
51
322.9683818
0
ARC
8
DEFAULT_255_1_234
10
7.5888638
20
-1.5027609
40
0.2608399
50
322.6007884
51
346.5182367
0
ARC
8
DEFAULT_255_1_234
10
7.4731234
20
-1.4732384
40
0.3802777
50
346.2582162
51
358.7741648
0
ARC
8
DEFAULT_255_1_234
10
7.3712903
20
-1.4677035
40
0.4822176
50
358.3755224
51
0.0098023
0
ARC
8
DEFAULT_255_1_234
10
7.446909
20
-1.4649343
40
0.4066078
50
359.6214041
51
11.2839074
0
ARC
8
DEFAULT_255_1_234
10
7.5746237
20
-1.4382934
40
0.2761514
50
11.0482309
51
31.8146458
0
ARC
8
DEFAULT_255_1_234
10
7.605528
20
-1.4215416
40
0.2410679
50
32.3035391
51
38.082671
0
ARC
8
DEFAULT_255_1_234
10
7.647594
20
-1.3834338
40
0.1844966
50
36.825067
51
85.7415724
0
ARC
8
DEFAULT_255_1_234
10
7.6408773
20
-1.4334699
40
0.2349122
50
85.0140713
51
90.0513278
0
LINE
8
DEFAULT_255_1_234
10
8.6647135
20
-0.6668567
11
8.6647135
21
-1.8419
0
LINE
8
DEFAULT_255_1_234
10
8.6647135
20
-1.8419
11
8.5153232
21
-1.8419
0
LINE
8
DEFAULT_255_1_234
10
8.5153232
20
-1.8419
11
8.5153232
21
-0.8515867
0
LINE
8
DEFAULT_255_1_234
10
8.5153232
20
-0.8515867
11
8.2157394
21
-0.9616215
0
LINE
8
DEFAULT_255_1_234
10
8.2157394
20
-0.9616215
11
8.2157394
21
-0.8266883
0
LINE
8
DEFAULT_255_1_234
10
8.2157394
20
-0.8266883
11
8.6414215
21
-0.6668567
0
LINE
8
DEFAULT_255_1_234
10
8.6414215
20
-0.6668567
11
8.6647135
21
-0.6668567
0
ARC
8
DEFAULT_255_1_234
10
9.5270121
20
-0.9802297
40
0.2822356
50
338.8763615
51
0.5166041
0
ARC
8
DEFAULT_255_1_234
10
9.5438775
20
-0.9847792
40
0.2648703
50
325.8412414
51
338.4795939
0
ARC
8
DEFAULT_255_1_234
10
9.5048143
20
-0.9576958
40
0.3124019
50
296.7586019
51
325.753654
0
ARC
8
DEFAULT_255_1_234
10
9.4760251
20
-0.9092211
40
0.368668
50
296.0902311
51
297.3618122
0
ARC
8
DEFAULT_255_1_234
10
9.5017709
20
-1.5646959
40
0.3518806
50
47.9009248
51
67.1946869
0
ARC
8
DEFAULT_255_1_234
10
9.5213951
20
-1.5400605
40
0.320451
50
35.236241
51
47.551371
0
ARC
8
DEFAULT_255_1_234
10
9.5475569
20
-1.5226007
40
0.2890103
50
359.2759738
51
35.4014081
0
ARC
8
DEFAULT_255_1_234
10
9.47306
20
-1.5299174
40
0.3635026
50
343.1294516
51
0.5776525
0
ARC
8
DEFAULT_255_1_234
10
9.5455145
20
-1.549867
40
0.2883832
50
310.8497458
51
342.744803
0
ARC
8
DEFAULT_255_1_234
10
9.5037258
20
-1.5021706
40
0.3517954
50
281.5473923
51
310.9169905
0
ARC
8
DEFAULT_255_1_234
10
9.4680708
20
-1.3468916
40
0.5110832
50
269.6192722
51
281.9789957
0
ARC
8
DEFAULT_255_1_234
10
9.4608497
20
-1.3468172
40
0.5111606
50
257.4584469
51
270.4287458
0
ARC
8
DEFAULT_255_1_234
10
9.422764
20
-1.5071656
40
0.3463762
50
228.7553743
51
257.8484423
0
ARC
8
DEFAULT_255_1_234
10
9.3917838
20
-1.5444558
40
0.297916
50
184.0104442
51
228.5071787
0
ARC
8
DEFAULT_255_1_234
10
9.5080782
20
-1.5267488
40
0.4152734
50
179.9315461
51
185.3254504
0
ARC
8
DEFAULT_255_1_234
10
9.3904428
20
-1.5230008
40
0.2976554
50
145.6795913
51
180.6259649
0
ARC
8
DEFAULT_255_1_234
10
9.4067777
20
-1.5344071
40
0.3175776
50
115.5537925
51
145.6416199
0
ARC
8
DEFAULT_255_1_234
10
9.4408708
20
-1.5954972
40
0.3874232
50
113.2437915
51
116.2054627
0
ARC
8
DEFAULT_255_1_234
10
9.425592
20
-0.955642
40
0.3154751
50
222.9548379
51
244.1372485
0
ARC
8
DEFAULT_255_1_234
10
9.4133995
20
-0.9693166
40
0.2972382
50
213.3439227
51
222.6271327
0
ARC
8
DEFAULT_255_1_234
10
9.394193
20
-0.9823692
40
0.274019
50
180.4316517
51
213.2713999
0
ARC
8
DEFAULT_255_1_234
10
9.4516931
20
-0.977689
40
0.33158
50
179.9992944
51
181.1655061
0
ARC
8
DEFAULT_255_1_234
10
9.4926348
20
-0.9742439
40
0.3725376
50
164.6186108
51
180.5292368
0
ARC
8
DEFAULT_255_1_234
10
9.4028211
20
-0.9500899
40
0.2795349
50
132.2454369
51
164.5092287
0
ARC
8
DEFAULT_255_1_234
10
9.4315315
20
-0.9825972
40
0.3229019
50
100.7052766
51
132.1387266
0
ARC
8
DEFAULT_255_1_234
10
9.4620287
20
-1.1203914
40
0.4639835
50
89.6732617
51
101.2449487
0
ARC
8
DEFAULT_255_1_234
10
9.4682485
20
-1.102901
40
0.4464999
50
76.2876631
51
90.4586123
0
ARC
8
DEFAULT_255_1_234
10
9.4988717
20
-0.980678
40
0.3205023
50
47.8240157
51
76.4266918
0
ARC
8
DEFAULT_255_1_234
10
9.5211267
20
-0.954641
40
0.2862661
50
6.9168658
51
47.6261438
0
ARC
8
DEFAULT_255_1_234
10
9.402467
20
-0.976563
40
0.4067708
50
359.8419705
51
7.9694496
0
ARC
8
DEFAULT_255_1_234
10
9.4366567
20
-1.5206075
40
0.2513121
50
359.4454068
51
16.9256425
0
ARC
8
DEFAULT_255_1_234
10
9.4835378
20
-1.5076967
40
0.2027071
50
17.292259
51
45.462717
0
ARC
8
DEFAULT_255_1_234
10
9.4781314
20
-1.5123566
40
0.2098212
50
45.3028762
51
83.1921472
0
ARC
8
DEFAULT_255_1_234
10
9.4637998
20
-1.5925105
40
0.2911472
50
82.2614531
51
90.143954
0
ARC
8
DEFAULT_255_1_234
10
9.4607118
20
-1.569205
40
0.2678513
50
89.4959189
51
104.8579811
0
ARC
8
DEFAULT_255_1_234
10
9.4430377
20
-1.502211
40
0.1985654
50
104.8855873
51
135.2448349
0
ARC
8
DEFAULT_255_1_234
10
9.448015
20
-1.5066664
40
0.2052373
50
135.3398955
51
172.104394
0
ARC
8
DEFAULT_255_1_234
10
9.5287208
20
-1.5221075
40
0.2873299
50
171.2651929
51
180.1859362
0
ARC
8
DEFAULT_255_1_234
10
9.5117909
20
-1.5253267
40
0.2704083
50
179.515471
51
193.6466734
0
ARC
8
DEFAULT_255_1_234
10
9.4301678
20
-1.5461223
40
0.1861855
50
193.3540587
51
225.8256931
0
ARC
8
DEFAULT_255_1_234
10
9.4342435
20
-1.5390476
40
0.1941102
50
226.418029
51
255.8553723
0
ARC
8
DEFAULT_255_1_234
10
9.4598868
20
-1.4454002
40
0.2911917
50
255.4655572
51
268.7985967
0
ARC
8
DEFAULT_255_1_234
10
9.464606
20
-1.3615509
40
0.3751331
50
268.3464808
51
270.0104874
0
ARC
8
DEFAULT_255_1_234
10
9.4669448
20
-1.4299862
40
0.3067064
50
269.575914
51
282.0823146
0
ARC
8
DEFAULT_255_1_234
10
9.4894357
20
-1.5294197
40
0.2047712
50
281.7522535
51
306.6056425
0
ARC
8
DEFAULT_255_1_234
10
9.4992783
20
-1.5455513
40
0.1859604
50
307.1350025
51
314.0277951
0
ARC
8
DEFAULT_255_1_234
10
9.4956867
20
-1.5429234
40
0.1903475
50
314.2553419
51
350.169324
0
ARC
8
DEFAULT_255_1_234
10
9.4105336
20
-1.5244591
40
0.2774269
50
349.4145679
51
0.2930737
0
ARC
8
DEFAULT_255_1_234
10
9.4625769
20
-1.0085647
40
0.2300764
50
89.477591
51
105.729794
0
ARC
8
DEFAULT_255_1_234
10
9.4489683
20
-0.9580363
40
0.1777519
50
105.922966
51
135.1662921
0
ARC
8
DEFAULT_255_1_234
10
9.4510185
20
-0.9594581
40
0.1802087
50
135.3053131
51
168.9882338
0
ARC
8
DEFAULT_255_1_234
10
9.5337757
20
-0.9784279
40
0.2650806
50
168.3802067
51
180.3602358
0
ARC
8
DEFAULT_255_1_234
10
9.5109337
20
-0.9821959
40
0.2422425
50
179.5029707
51
194.9126783
0
ARC
8
DEFAULT_255_1_234
10
9.4523998
20
-0.997589
40
0.1817188
50
194.9722181
51
224.1943972
0
ARC
8
DEFAULT_255_1_234
10
9.4495865
20
-0.9998831
40
0.1781027
50
224.2961434
51
262.0157375
0
ARC
8
DEFAULT_255_1_234
10
9.4638108
20
-0.9267339
40
0.2525492
50
261.1250369
51
270.1959853
0
ARC
8
DEFAULT_255_1_234
10
9.4667863
20
-0.9454661
40
0.233825
50
269.4825617
51
285.0988277
0
ARC
8
DEFAULT_255_1_234
10
9.4822022
20
-1.003301
40
0.1739712
50
285.1585659
51
315.9484648
0
ARC
8
DEFAULT_255_1_234
10
9.4733034
20
-0.9951114
40
0.1860616
50
316.0412958
51
351.9162715
0
ARC
8
DEFAULT_255_1_234
10
9.3999989
20
-0.9809755
40
0.2606517
50
351.1056823
51
0.1936567
0
ARC
8
DEFAULT_255_1_234
10
9.4262818
20
-0.9779631
40
0.234377
50
359.4789506
51
16.0679113
0
ARC
8
DEFAULT_255_1_234
10
9.4738777
20
-0.965119
40
0.1850875
50
16.3251951
51
44.791304
0
ARC
8
DEFAULT_255_1_234
10
9.4721058
20
-0.9650661
40
0.186312
50
44.3958661
51
88.2498933
0
ARC
8
DEFAULT_255_1_234
10
9.4647612
20
-1.0261846
40
0.2476868
50
86.9833827
51
90.0200148
0
ENDSEC
0
EOF