0
SECTION
2
HEADER
9
$MEASUREMENT
70
1
0
ENDSEC
0
SECTION
2
TABLES
0
TABLE
2
LTYPE
0
LTYPE
72
65
70
64
2
CONTINUOUS
3
______
73
0
40
0
0
ENDTAB
0
TABLE
2
LAYER
0
LAYER
2
DEFAULT_255_2_778
70
0
62
255
6
CONTINUOUS
0
LAYER
2
DEFAULT_255_1_234
70
0
62
255
6
CONTINUOUS
0
ENDTAB
0
ENDSEC
0
SECTION
2
ENTITIES
0
LINE
8
DEFAULT_255_2_778
10
8.7221125
20
6.4823082
11
6.7377125
21
1.1906082
0
LINE
8
DEFAULT_255_2_778
10
6.7377125
20
1.1906082
11
6.7377125
21
-2.7780918
0
LINE
8
DEFAULT_255_2_778
10
6.7376834
20
10.4510499
11
6.7376834
21
5.6885499
0
LINE
8
DEFAULT_255_2_778
10
6.7376834
20
5.6885499
11
9.3834834
21
5.6885499
0
LINE
8
DEFAULT_255_2_778
10
8.0606417
20
4.6302083
11
6.7377417
21
4.8948083
0
LINE
8
DEFAULT_255_2_778
10
6.7377417
20
4.8948083
11
7.0023417
21
1.9844083
0
LINE
8
DEFAULT_255_1_234
10
3.2429137
20
9.3370433
11
3.2429137
21
8.162
0
LINE
8
DEFAULT_255_1_234
10
3.2429137
20
8.162
11
3.0935234
21
8.162
0
LINE
8
DEFAULT_255_1_234
10
3.0935234
20
8.162
11
3.0935234
21
9.1523133
0
LINE
8
DEFAULT_255_1_234
10
3.0935234
20
9.1523133
11
2.7939396
21
9.0422785
0
LINE
8
DEFAULT_255_1_234
10
2.7939396
20
9.0422785
11
2.7939396
21
9.1772117
0
LINE
8
DEFAULT_255_1_234
10
2.7939396
20
9.1772117
11
3.2196217
21
9.3370433
0
LINE
8
DEFAULT_255_1_234
10
3.2196217
20
9.3370433
11
3.2429137
21
9.3370433
0
LINE
8
DEFAULT_255_1_234
10
4.1665636
20
9.3370433
11
4.1665636
21
8.162
0
LINE
8
DEFAULT_255_1_234
10
4.1665636
20
8.162
11
4.0171733
21
8.162
0
LINE
8
DEFAULT_255_1_234
10
4.0171733
20
8.162
11
4.0171733
21
9.1523133
0
LINE
8
DEFAULT_255_1_234
10
4.0171733
20
9.1523133
11
3.7175895
21
9.0422785
0
LINE
8
DEFAULT_255_1_234
10
3.7175895
20
9.0422785
11
3.7175895
21
9.1772117
0
LINE
8
DEFAULT_255_1_234
10
3.7175895
20
9.1772117
11
4.1432716
21
9.3370433
0
LINE
8
DEFAULT_255_1_234
10
4.1432716
20
9.3370433
11
4.1665636
21
9.3370433
0
LINE
8
DEFAULT_255_1_234
10
3.2338137
20
-0.6668567
11
3.2338137
21
-1.8419
0
LINE
8
DEFAULT_255_1_234
10
3.2338137
20
-1.8419
11
3.0844234
21
-1.8419
0
LINE
8
DEFAULT_255_1_234
10
3.0844234
20
-1.8419
11
3.0844234
21
-0.8515867
0
LINE
8
DEFAULT_255_1_234
10
3.0844234
20
-0.8515867
11
2.7848396
21
-0.9616215
0
LINE
8
DEFAULT_255_1_234
10
2.7848396
20
-0.9616215
11
2.7848396
21
-0.8266883
0
LINE
8
DEFAULT_255_1_234
10
2.7848396
20
-0.8266883
11
3.2105217
21
-0.6668567
0
LINE
8
DEFAULT_255_1_234
10
3.2105217
20
-0.6668567
11
3.2338137
21
-0.6668567
0
LINE
8
DEFAULT_255_1_234
10
4.4353618
20
-1.7206208
11
4.4353618
21
-1.8419
0
LINE
8
DEFAULT_255_1_234
10
4.4353618
20
-1.8419
11
3.6691339
21
-1.8419
0
LINE
8
DEFAULT_255_1_234
10
3.6691339
20
-1.8419
11
3.6691339
21
-1.7350779
0
LINE
8
DEFAULT_255_1_234
10
3.6691339
20
-1.7350779
11
4.0739335
21
-1.2853005
0
LINE
8
DEFAULT_255_1_234
10
3.7952322
20
-1.0170405
11
3.6466451
21
-1.0170405
0
LINE
8
DEFAULT_255_1_234
10
4.1614795
20
-1.3808782
11
3.8482417
21
-1.7206208
0
LINE
8
DEFAULT_255_1_234
10
3.8482417
20
-1.7206208
11
4.4353618
21
-1.7206208
0
ARC
8
DEFAULT_255_1_234
10
2.7249169
20
-0.0923473
40
1.8008286
50
318.5132453
51
320.7828378
0
ARC
8
DEFAULT_255_1_234
10
3.2536143
20
-0.5226574
40
1.1191493
50
320.7372736
51
323.9737074
0
ARC
8
DEFAULT_255_1_234
10
3.6456
20
-0.8066639
40
0.6350923
50
323.8961724
51
328.6421089
0
ARC
8
DEFAULT_255_1_234
10
3.8502595
20
-0.9328969
40
0.3946393
50
328.8299013
51
331.789948
0
ARC
8
DEFAULT_255_1_234
10
3.9499774
20
-0.9843491
40
0.2824501
50
331.4255242
51
352.9364833
0
ARC
8
DEFAULT_255_1_234
10
3.9636274
20
-0.9874024
40
0.2685315
50
353.2248685
51
0.0169286
0
ARC
8
DEFAULT_255_1_234
10
3.9846151
20
-0.985105
40
0.2475536
50
359.4866256
51
15.9339782
0
ARC
8
DEFAULT_255_1_234
10
4.0353136
20
-0.9714714
40
0.1950618
50
16.1714718
51
43.5284424
0
ARC
8
DEFAULT_255_1_234
10
4.0430445
20
-0.9637427
40
0.184134
50
43.4415429
51
83.1661404
0
ARC
8
DEFAULT_255_1_234
10
4.0296363
20
-1.0374229
40
0.258926
50
82.160215
51
90.1505798
0
ARC
8
DEFAULT_255_1_234
10
4.026479
20
-1.0911135
40
0.3126255
50
89.5460705
51
102.5418777
0
ARC
8
DEFAULT_255_1_234
10
4.0021876
20
-0.9880335
40
0.2067346
50
102.1739365
51
129.2061916
0
ARC
8
DEFAULT_255_1_234
10
3.9942948
20
-0.9755906
40
0.1921118
50
129.7279328
51
135.7542026
0
ARC
8
DEFAULT_255_1_234
10
4.0064476
20
-0.9852955
40
0.2075944
50
136.175737
51
166.3674722
0
ARC
8
DEFAULT_255_1_234
10
4.1071395
20
-1.0122818
40
0.3118201
50
165.9092917
51
178.8683903
0
ARC
8
DEFAULT_255_1_234
10
4.1936256
20
-1.0169821
40
0.3983935
50
178.438168
51
180.0083905
0
ARC
8
DEFAULT_255_1_234
10
4.0534859
20
-1.0130769
40
0.4068601
50
163.2878735
51
180.5581814
0
ARC
8
DEFAULT_255_1_234
10
3.973312
20
-0.991016
40
0.3237344
50
133.454115
51
162.9470031
0
ARC
8
DEFAULT_255_1_234
10
3.9911661
20
-1.01
40
0.349795
50
100.7869394
51
133.4384016
0
ARC
8
DEFAULT_255_1_234
10
4.0259433
20
-1.1648681
40
0.5084616
50
89.6605301
51
101.3704185
0
ARC
8
DEFAULT_255_1_234
10
4.0325772
20
-1.1587504
40
0.502348
50
78.2171172
51
90.4130393
0
ARC
8
DEFAULT_255_1_234
10
4.068085
20
-0.9963363
40
0.3361092
50
55.9268222
51
78.4888551
0
ARC
8
DEFAULT_255_1_234
10
4.087729
20
-0.9624676
40
0.2970617
50
47.9292255
51
55.4054003
0
ARC
8
DEFAULT_255_1_234
10
4.0978851
20
-0.9521498
40
0.2825983
50
4.3347696
51
48.0560701
0
ARC
8
DEFAULT_255_1_234
10
3.9883244
20
-0.9691399
40
0.393225
50
359.925209
51
5.5967654
0
ARC
8
DEFAULT_255_1_234
10
4.0312136
20
-0.9635184
40
0.3503892
50
337.8914096
51
358.9967724
0
ARC
8
DEFAULT_255_1_234
10
3.7598548
20
-0.8588294
40
0.6412172
50
326.9135351
51
338.3505194
0
ARC
8
DEFAULT_255_1_234
10
3.3612852
20
-0.6033716
40
1.1146189
50
319.6472867
51
327.095818
0
ARC
8
DEFAULT_255_1_234
10
2.9779855
20
-0.2872
40
1.6114559
50
317.2586784
51
319.9046139
0
ENDSEC
0
EOF