0
SECTION
2
HEADER
9
$MEASUREMENT
70
1
0
ENDSEC
0
SECTION
2
TABLES
0
TABLE
2
LTYPE
0
LTYPE
72
65
70
64
2
CONTINUOUS
3
______
73
0
40
0
0
ENDTAB
0
TABLE
2
LAYER
0
LAYER
2
DEFAULT_255_1_234
70
0
62
255
6
CONTINUOUS
0
LAYER
2
DEFAULT_255_2_778
70
0
62
255
6
CONTINUOUS
0
ENDTAB
0
ENDSEC
0
SECTION
2
ENTITIES
0
LINE
8
DEFAULT_255_1_234
10
4.9456137
20
9.3370433
11
4.9456137
21
8.162
0
LINE
8
DEFAULT_255_1_234
10
4.9456137
20
8.162
11
4.7962234
21
8.162
0
LINE
8
DEFAULT_255_1_234
10
4.7962234
20
8.162
11
4.7962234
21
9.1523133
0
LINE
8
DEFAULT_255_1_234
10
4.7962234
20
9.1523133
11
4.4966396
21
9.0422785
0
LINE
8
DEFAULT_255_1_234
10
4.4966396
20
9.0422785
11
4.4966396
21
9.1772117
0
LINE
8
DEFAULT_255_1_234
10
4.4966396
20
9.1772117
11
4.9223217
21
9.3370433
0
LINE
8
DEFAULT_255_1_234
10
4.9223217
20
9.3370433
11
4.9456137
21
9.3370433
0
LINE
8
DEFAULT_255_1_234
10
5.5969877
20
8.6977169
11
5.5969877
21
8.8189962
0
LINE
8
DEFAULT_255_1_234
10
5.5969877
20
8.8189962
11
5.7086289
21
8.8189962
0
LINE
8
DEFAULT_255_1_234
10
5.5182767
20
9.0246087
11
5.3696895
21
9.0246087
0
LINE
8
DEFAULT_255_1_234
10
5.3592482
20
8.4704188
11
5.5086386
21
8.4704188
0
LINE
8
DEFAULT_255_1_234
10
5.7086289
20
8.6977169
11
5.5969877
21
8.6977169
0
ARC
8
DEFAULT_255_1_234
10
5.7057155
20
9.1582713
40
0.3392876
50
270.4919872
51
281.8951556
0
ARC
8
DEFAULT_255_1_234
10
5.7298417
20
9.0480702
40
0.2264817
50
281.6691735
51
301.2943132
0
ARC
8
DEFAULT_255_1_234
10
5.7468627
20
9.0169304
40
0.1910381
50
301.7833094
51
311.7545298
0
ARC
8
DEFAULT_255_1_234
10
5.7560203
20
9.0067748
40
0.1773635
50
311.7323931
51
354.2802411
0
ARC
8
DEFAULT_255_1_234
10
5.6833828
20
9.0192722
40
0.2509385
50
353.0937916
51
0.1181479
0
ARC
8
DEFAULT_255_1_234
10
5.6372613
20
9.0240386
40
0.2970898
50
359.1805295
51
15.0453146
0
ARC
8
DEFAULT_255_1_234
10
5.771845
20
9.0632992
40
0.1569564
50
13.9577229
51
77.6713066
0
ARC
8
DEFAULT_255_1_234
10
5.7331979
20
8.9247949
40
0.3006298
50
76.1116566
51
90.7026153
0
ARC
8
DEFAULT_255_1_234
10
5.7272817
20
8.9521545
40
0.2732568
50
89.5324876
51
103.531937
0
ARC
8
DEFAULT_255_1_234
10
5.7072261
20
9.0320884
40
0.1908508
50
103.2931773
51
133.5619022
0
ARC
8
DEFAULT_255_1_234
10
5.702775
20
9.0380375
40
0.1834746
50
133.8349307
51
173.5344437
0
ARC
8
DEFAULT_255_1_234
10
5.7750793
20
9.0252213
40
0.2568033
50
172.5096846
51
180.1366907
0
ARC
8
DEFAULT_255_1_234
10
5.6799687
20
9.0286622
40
0.3103056
50
155.3484492
51
180.7484736
0
ARC
8
DEFAULT_255_1_234
10
5.6750776
20
9.0257846
40
0.3070957
50
131.5744599
51
154.4798489
0
ARC
8
DEFAULT_255_1_234
10
5.7063923
20
8.994131
40
0.3515643
50
96.9875458
51
131.9690667
0
ARC
8
DEFAULT_255_1_234
10
5.7283403
20
8.8695636
40
0.4779224
50
89.8596053
51
97.7825159
0
ARC
8
DEFAULT_255_1_234
10
5.7331466
20
8.8433616
40
0.5041361
50
78.3655447
51
90.4131539
0
ARC
8
DEFAULT_255_1_234
10
5.7689384
20
9.0092887
40
0.3344039
50
56.6229102
51
78.638727
0
ARC
8
DEFAULT_255_1_234
10
5.7904328
20
9.0468805
40
0.2912001
50
47.0253525
51
56.0854072
0
ARC
8
DEFAULT_255_1_234
10
5.7924108
20
9.0508223
40
0.2869704
50
10.9208013
51
46.7778124
0
ARC
8
DEFAULT_255_1_234
10
5.6560174
20
9.0192857
40
0.426899
50
359.6364486
51
11.6087304
0
ARC
8
DEFAULT_255_1_234
10
5.8395018
20
9.0177752
40
0.243409
50
332.3549906
51
359.7179418
0
ARC
8
DEFAULT_255_1_234
10
5.774462
20
9.0486142
40
0.3153459
50
325.2333722
51
332.8745602
0
ARC
8
DEFAULT_255_1_234
10
5.7897244
20
9.0379828
40
0.2967456
50
292.9802137
51
325.2392345
0
ARC
8
DEFAULT_255_1_234
10
5.7622617
20
9.0913863
40
0.3566604
50
292.5402179
51
293.6924929
0
ARC
8
DEFAULT_255_1_234
10
5.8015213
20
8.4459091
40
0.3307468
50
57.6435486
51
72.8625112
0
ARC
8
DEFAULT_255_1_234
10
5.8369713
20
8.5033549
40
0.2632492
50
36.7248896
51
57.4697979
0
ARC
8
DEFAULT_255_1_234
10
5.8358346
20
8.504622
40
0.2634081
50
8.0545065
51
36.356114
0
ARC
8
DEFAULT_255_1_234
10
5.7495531
20
8.4891174
40
0.3510261
50
359.8320645
51
8.5869982
0
ARC
8
DEFAULT_255_1_234
10
5.7120307
20
8.4843101
40
0.3885653
50
343.9829931
51
0.5571613
0
ARC
8
DEFAULT_255_1_234
10
5.8006504
20
8.4600438
40
0.2966924
50
311.6359546
51
343.7651759
0
ARC
8
DEFAULT_255_1_234
10
5.7628074
20
8.5027102
40
0.3537231
50
279.7829875
51
311.6255694
0
ARC
8
DEFAULT_255_1_234
10
5.732685
20
8.646428
40
0.5004971
50
269.7286406
51
280.3856417
0
ARC
8
DEFAULT_255_1_234
10
5.7264922
20
8.6422996
40
0.4963778
50
256.6828919
51
270.4412052
0
ARC
8
DEFAULT_255_1_234
10
5.6926218
20
8.5038394
40
0.3538406
50
229.4223008
51
256.8556159
0
ARC
8
DEFAULT_255_1_234
10
5.6511611
20
8.4571736
40
0.2914296
50
181.818294
51
229.6455059
0
ARC
8
DEFAULT_255_1_234
10
5.7551567
20
8.4702496
40
0.3959084
50
179.9755256
51
183.2323064
0
ARC
8
DEFAULT_255_1_234
10
5.7379313
20
8.4682037
40
0.2293034
50
179.4465117
51
196.2869258
0
ARC
8
DEFAULT_255_1_234
10
5.6891721
20
8.4548651
40
0.1787621
50
196.5661473
51
227.705904
0
ARC
8
DEFAULT_255_1_234
10
5.7055816
20
8.4732155
40
0.2033784
50
227.7652068
51
257.8762805
0
ARC
8
DEFAULT_255_1_234
10
5.7280786
20
8.5675156
40
0.3003081
50
257.4584385
51
270.426602
0
ARC
8
DEFAULT_255_1_234
10
5.7326352
20
8.5964996
40
0.329292
50
269.5962073
51
280.8789248
0
ARC
8
DEFAULT_255_1_234
10
5.7555881
20
8.4818685
40
0.2123908
50
280.6346389
51
299.8595945
0
ARC
8
DEFAULT_255_1_234
10
5.7746788
20
8.4456212
40
0.171457
50
300.3576302
51
314.5517981
0
ARC
8
DEFAULT_255_1_234
10
5.7663848
20
8.4516919
40
0.1816095
50
315.0728369
51
345.0431014
0
ARC
8
DEFAULT_255_1_234
10
5.6740662
20
8.4785841
40
0.2777492
50
344.5986631
51
357.9269593
0
ARC
8
DEFAULT_255_1_234
10
5.5844989
20
8.4847276
40
0.3674917
50
357.4748886
51
0.0231117
0
ARC
8
DEFAULT_255_1_234
10
5.6868098
20
8.4871679
40
0.2651907
50
359.5047933
51
13.4239635
0
ARC
8
DEFAULT_255_1_234
10
5.7734741
20
8.5093478
40
0.1757509
50
12.9498199
51
48.7551375
0
ARC
8
DEFAULT_255_1_234
10
5.7552475
20
8.48444
40
0.2065134
50
49.5088623
51
72.1836453
0
ARC
8
DEFAULT_255_1_234
10
5.7194628
20
8.3782291
40
0.3185836
50
71.9010081
51
84.3554254
0
ARC
8
DEFAULT_255_1_234
10
5.703326
20
8.2421326
40
0.4556151
50
84.0193428
51
89.333121
0
LINE
8
DEFAULT_255_1_234
10
5.4269119
20
-1.7206208
11
5.4269119
21
-1.8419
0
LINE
8
DEFAULT_255_1_234
10
5.4269119
20
-1.8419
11
4.660684
21
-1.8419
0
LINE
8
DEFAULT_255_1_234
10
4.660684
20
-1.8419
11
4.660684
21
-1.7350779
0
LINE
8
DEFAULT_255_1_234
10
4.660684
20
-1.7350779
11
5.0654836
21
-1.2853005
0
LINE
8
DEFAULT_255_1_234
10
4.7867823
20
-1.0170405
11
4.6381952
21
-1.0170405
0
LINE
8
DEFAULT_255_1_234
10
5.1530296
20
-1.3808782
11
4.8397918
21
-1.7206208
0
LINE
8
DEFAULT_255_1_234
10
4.8397918
20
-1.7206208
11
5.4269119
21
-1.7206208
0
ARC
8
DEFAULT_255_1_234
10
3.716467
20
-0.0923473
40
1.8008286
50
318.5132453
51
320.7828378
0
ARC
8
DEFAULT_255_1_234
10
4.2451644
20
-0.5226574
40
1.1191493
50
320.7372736
51
323.9737074
0
ARC
8
DEFAULT_255_1_234
10
4.6371501
20
-0.8066639
40
0.6350923
50
323.8961724
51
328.6421089
0
ARC
8
DEFAULT_255_1_234
10
4.8418096
20
-0.9328969
40
0.3946393
50
328.8299013
51
331.789948
0
ARC
8
DEFAULT_255_1_234
10
4.9415274
20
-0.9843491
40
0.2824501
50
331.4255242
51
352.9364833
0
ARC
8
DEFAULT_255_1_234
10
4.9551775
20
-0.9874024
40
0.2685315
50
353.2248685
51
0.0169286
0
ARC
8
DEFAULT_255_1_234
10
4.9761652
20
-0.985105
40
0.2475536
50
359.4866256
51
15.9339782
0
ARC
8
DEFAULT_255_1_234
10
5.0268637
20
-0.9714714
40
0.1950618
50
16.1714718
51
43.5284424
0
ARC
8
DEFAULT_255_1_234
10
5.0345946
20
-0.9637427
40
0.184134
50
43.4415429
51
83.1661404
0
ARC
8
DEFAULT_255_1_234
10
5.0211864
20
-1.0374229
40
0.258926
50
82.160215
51
90.1505798
0
ARC
8
DEFAULT_255_1_234
10
5.0180291
20
-1.0911135
40
0.3126255
50
89.5460705
51
102.5418777
0
ARC
8
DEFAULT_255_1_234
10
4.9937377
20
-0.9880335
40
0.2067346
50
102.1739365
51
129.2061916
0
ARC
8
DEFAULT_255_1_234
10
4.9858449
20
-0.9755906
40
0.1921118
50
129.7279328
51
135.7542026
0
ARC
8
DEFAULT_255_1_234
10
4.9979977
20
-0.9852955
40
0.2075944
50
136.175737
51
166.3674722
0
ARC
8
DEFAULT_255_1_234
10
5.0986896
20
-1.0122818
40
0.3118201
50
165.9092917
51
178.8683903
0
ARC
8
DEFAULT_255_1_234
10
5.1851757
20
-1.0169821
40
0.3983935
50
178.438168
51
180.0083905
0
ARC
8
DEFAULT_255_1_234
10
5.0450359
20
-1.0130769
40
0.4068601
50
163.2878735
51
180.5581814
0
ARC
8
DEFAULT_255_1_234
10
4.9648621
20
-0.991016
40
0.3237344
50
133.454115
51
162.9470031
0
ARC
8
DEFAULT_255_1_234
10
4.9827162
20
-1.01
40
0.349795
50
100.7869394
51
133.4384016
0
ARC
8
DEFAULT_255_1_234
10
5.0174934
20
-1.1648681
40
0.5084616
50
89.6605301
51
101.3704185
0
ARC
8
DEFAULT_255_1_234
10
5.0241273
20
-1.1587504
40
0.502348
50
78.2171172
51
90.4130393
0
ARC
8
DEFAULT_255_1_234
10
5.0596351
20
-0.9963363
40
0.3361092
50
55.9268222
51
78.4888551
0
ARC
8
DEFAULT_255_1_234
10
5.0792791
20
-0.9624676
40
0.2970617
50
47.9292255
51
55.4054003
0
ARC
8
DEFAULT_255_1_234
10
5.0894352
20
-0.9521498
40
0.2825983
50
4.3347696
51
48.0560701
0
ARC
8
DEFAULT_255_1_234
10
4.9798745
20
-0.9691399
40
0.393225
50
359.925209
51
5.5967654
0
ARC
8
DEFAULT_255_1_234
10
5.0227637
20
-0.9635184
40
0.3503892
50
337.8914096
51
358.9967724
0
ARC
8
DEFAULT_255_1_234
10
4.7514049
20
-0.8588294
40
0.6412172
50
326.9135351
51
338.3505194
0
ARC
8
DEFAULT_255_1_234
10
4.3528353
20
-0.6033716
40
1.1146189
50
319.6472867
51
327.095818
0
ARC
8
DEFAULT_255_1_234
10
3.9695356
20
-0.2872
40
1.6114559
50
317.2586784
51
319.9046139
0
LINE
8
DEFAULT_255_1_234
10
6.2116127
20
-0.6724789
11
6.2116127
21
-1.449148
0
LINE
8
DEFAULT_255_1_234
10
6.2116127
20
-1.449148
11
6.3738538
21
-1.449148
0
LINE
8
DEFAULT_255_1_234
10
6.3738538
20
-1.449148
11
6.3738538
21
-1.5704272
0
LINE
8
DEFAULT_255_1_234
10
6.3738538
20
-1.5704272
11
6.2116127
21
-1.5704272
0
LINE
8
DEFAULT_255_1_234
10
6.2116127
20
-1.5704272
11
6.2116127
21
-1.8419
0
LINE
8
DEFAULT_255_1_234
10
6.2116127
20
-1.8419
11
6.0622224
21
-1.8419
0
LINE
8
DEFAULT_255_1_234
10
6.0622224
20
-1.8419
11
6.0622224
21
-1.5704272
0
LINE
8
DEFAULT_255_1_234
10
6.0622224
20
-1.5704272
11
5.5297181
21
-1.5704272
0
LINE
8
DEFAULT_255_1_234
10
5.5297181
20
-1.5704272
11
5.5297181
21
-1.4828813
0
LINE
8
DEFAULT_255_1_234
10
5.5297181
20
-1.4828813
11
6.0533875
21
-0.6724789
0
LINE
8
DEFAULT_255_1_234
10
6.0533875
20
-0.6724789
11
6.2116127
21
-0.6724789
0
LINE
8
DEFAULT_255_1_234
10
6.0445525
20
-0.9078088
11
5.6983846
21
-1.449148
0
LINE
8
DEFAULT_255_1_234
10
5.6983846
20
-1.449148
11
6.0622224
21
-1.449148
0
LINE
8
DEFAULT_255_1_234
10
6.0622224
20
-1.449148
11
6.0622224
21
-0.8756819
0
LINE
8
DEFAULT_255_1_234
10
6.0622224
20
-0.8756819
11
6.0445525
21
-0.9078088
0
LINE
8
DEFAULT_255_2_778
10
6.0691501
20
5.1594166
11
14.0066501
21
5.1594166
0
LINE
8
DEFAULT_255_2_778
10
14.0066501
20
5.1594166
11
14.0066501
21
2.5136166
0
LINE
8
DEFAULT_255_2_778
10
14.0066501
20
2.5136166
11
6.0691501
21
2.5136166
0
LINE
8
DEFAULT_255_2_778
10
6.0691501
20
2.5136166
11
6.0691501
21
5.1594166
0
ARC
8
DEFAULT_255_2_778
10
12.6822557
20
3.8379443
40
0.6600157
50
89.871003
51
180.128997
0
ARC
8
DEFAULT_255_2_778
10
12.685149
20
3.8379655
40
0.6599943
50
359.8691577
51
90.1221758
0
ARC
8
DEFAULT_255_2_778
10
12.6851705
20
3.8350295
40
0.6599728
50
269.8759594
51
0.1240406
0
ARC
8
DEFAULT_255_2_778
10
12.6822345
20
3.8350508
40
0.6599942
50
179.8778094
51
270.1308423
0
LINE
8
DEFAULT_255_2_778
10
12.0222417
20
3.8364583
11
12.0222417
21
3.8364583
0
LINE
8
DEFAULT_255_2_778
10
7.3921
20
5.1593333
11
7.3921
21
10.4510333
0
LINE
8
DEFAULT_255_2_778
10
7.3921
20
2.5135333
11
7.3921
21
-2.7781667
0
LINE
8
DEFAULT_255_2_778
10
11.3608
20
2.5136166
11
11.3608
21
5.1594166
0
LINE
8
DEFAULT_255_2_778
10
12.6837
20
5.1593333
11
12.6837
21
10.4510333
0
LINE
8
DEFAULT_255_2_778
10
12.6837
20
-2.7781667
11
12.6837
21
2.5135333
0
LINE
8
DEFAULT_255_2_778
10
13.3451708
20
6.4948
11
14.0066708
21
6.4948
0
LINE
8
DEFAULT_255_2_778
10
14.5358167
20
6.4947833
11
14.0066167
21
6.7593833
0
LINE
8
DEFAULT_255_2_778
10
14.0066167
20
6.7593833
11
14.0066167
21
6.2301833
0
LINE
8
DEFAULT_255_2_778
10
14.0066167
20
6.2301833
11
14.5358167
21
6.4947833
0
ARC
8
DEFAULT_255_2_778
10
14.6278777
20
6.3946207
40
0.9986333
50
349.445524
51
0.6950269
0
ARC
8
DEFAULT_255_2_778
10
15.1906817
20
6.2850022
40
0.4252981
50
328.8705532
51
350.0753469
0
ARC
8
DEFAULT_255_2_778
10
15.3476246
20
6.2000059
40
0.247156
50
266.058943
51
326.9278944
0
ARC
8
DEFAULT_255_2_778
10
15.3139637
20
6.2011768
40
0.2483029
50
213.8868488
51
273.8503679
0
ARC
8
DEFAULT_255_2_778
10
15.4830743
20
6.2946439
40
0.4411176
50
188.7072649
51
211.7175291
0
ARC
8
DEFAULT_255_2_778
10
16.0025548
20
6.3926736
40
0.9696233
50
180.2032302
51
189.7861911
0
ARC
8
DEFAULT_255_2_778
10
16.0005697
20
6.5761113
40
0.9677101
50
169.103592
51
180.7269064
0
ARC
8
DEFAULT_255_2_778
10
15.4587348
20
6.6844606
40
0.4151816
50
148.5255798
51
169.6515686
0
ARC
8
DEFAULT_255_2_778
10
15.3118069
20
6.7632531
40
0.2489136
50
85.9152381
51
146.3351392
0
ARC
8
DEFAULT_255_2_778
10
15.3452046
20
6.7531935
40
0.2588155
50
44.1016911
51
93.4704449
0
ARC
8
DEFAULT_255_2_778
10
15.3497045
20
6.7684895
40
0.2450649
50
33.8890368
51
42.2654745
0
ARC
8
DEFAULT_255_2_778
10
15.200493
20
6.683925
40
0.4162832
50
8.9718127
51
32.0995266
0
ARC
8
DEFAULT_255_2_778
10
14.6474533
20
6.5783565
40
0.979186
50
359.8933794
51
10.0269383
0
ARC
8
DEFAULT_255_2_778
10
14.7071656
20
6.5977579
40
0.7997608
50
359.1457539
51
10.422671
0
ARC
8
DEFAULT_255_2_778
10
15.2007268
20
6.6895199
40
0.2977445
50
10.2382032
51
27.7457033
0
ARC
8
DEFAULT_255_2_778
10
15.3373842
20
6.7607041
40
0.1436614
50
27.9933595
51
93.250841
0
ARC
8
DEFAULT_255_2_778
10
15.3210481
20
6.7628447
40
0.1415268
50
86.6827628
51
152.3904734
0
ARC
8
DEFAULT_255_2_778
10
15.5140035
20
6.6678401
40
0.3565774
50
153.2321198
51
174.5006509
0
ARC
8
DEFAULT_255_2_778
10
16.0287912
20
6.5952369
40
0.8762539
50
173.0008477
51
179.9740087
0
ARC
8
DEFAULT_255_2_778
10
15.9406404
20
6.3741491
40
0.7881925
50
179.1359991
51
190.8439711
0
ARC
8
DEFAULT_255_2_778
10
15.4717742
20
6.2840811
40
0.3107538
50
190.7979756
51
207.740699
0
ARC
8
DEFAULT_255_2_778
10
15.3255584
20
6.2036981
40
0.1439606
50
206.5128338
51
272.1015425
0
ARC
8
DEFAULT_255_2_778
10
15.3372359
20
6.2014865
40
0.1417966
50
267.4137288
51
331.9163702
0
ARC
8
DEFAULT_255_2_778
10
15.1533105
20
6.2950384
40
0.3481308
50
332.582515
51
353.9016743
0
ARC
8
DEFAULT_255_2_778
10
14.6113342
20
6.3766615
40
0.8960218
50
352.3934067
51
359.6337754
0
LINE
8
DEFAULT_255_2_778
10
15.6264375
20
6.5765344
11
15.6264375
21
6.4067344
0
LINE
8
DEFAULT_255_2_778
10
15.0329375
20
6.3892344
11
15.0329375
21
6.5638344
0
LINE
8
DEFAULT_255_2_778
10
15.6266375
20
6.5765344
11
15.6264375
21
6.5765344
0
LINE
8
DEFAULT_255_2_778
10
15.5068375
20
6.3715344
11
15.5068375
21
6.5858344
0
LINE
8
DEFAULT_255_2_778
10
15.1525375
20
6.5956344
11
15.1525375
21
6.3860344
0
LINE
8
DEFAULT_255_2_778
10
15.5073375
20
6.3709344
11
15.5068375
21
6.3715344
0
ENDSEC
0
EOF