0
SECTION
2
HEADER
9
$MEASUREMENT
70
1
0
ENDSEC
0
SECTION
2
TABLES
0
TABLE
2
LTYPE
0
LTYPE
72
65
70
64
2
CONTINUOUS
3
______
73
0
40
0
0
ENDTAB
0
TABLE
2
LAYER
0
LAYER
2
DEFAULT_255_1_850
70
0
62
255
6
CONTINUOUS
0
LAYER
2
DEFAULT_255_2_778_8
70
0
62
255
6
CONTINUOUS
0
ENDTAB
0
ENDSEC
0
SECTION
2
ENTITIES
0
LINE
8
DEFAULT_255_1_850
10
3.8800274
20
-0.3610979
11
3.6583559
21
-0.3610979
0
LINE
8
DEFAULT_255_1_850
10
2.8054026
20
-1.0996013
11
3.0270741
21
-1.0996013
0
ARC
8
DEFAULT_255_1_850
10
3.2706437
20
-1.1617995
40
0.3877227
50
359.5777178
51
11.4019666
0
ARC
8
DEFAULT_255_1_850
10
3.4036368
20
-1.1338204
40
0.2518257
50
11.14365
51
31.8838962
0
ARC
8
DEFAULT_255_1_850
10
3.4392665
20
-1.1140103
40
0.2111174
50
32.42628
51
45.486351
0
ARC
8
DEFAULT_255_1_850
10
3.3512606
20
-1.2094424
40
0.3408927
50
46.1838696
51
57.3875537
0
ARC
8
DEFAULT_255_1_850
10
3.1879771
20
-1.4587698
40
0.63892
50
57.1038603
51
63.6435833
0
ARC
8
DEFAULT_255_1_850
10
2.9852407
20
-1.8649444
40
1.0928792
50
63.573372
51
68.3350438
0
ARC
8
DEFAULT_255_1_850
10
2.7883815
20
-2.3498483
40
1.6162097
50
68.1954842
51
70.3952559
0
ARC
8
DEFAULT_255_1_850
10
3.9295935
20
0.8606191
40
1.7910576
50
246.7728698
51
250.4640728
0
ARC
8
DEFAULT_255_1_850
10
3.6784338
20
0.2788768
40
1.1574155
50
241.5775763
51
246.8410363
0
ARC
8
DEFAULT_255_1_850
10
3.4583509
20
-0.1251288
40
0.6973564
50
234.069363
51
241.6811595
0
ARC
8
DEFAULT_255_1_850
10
3.3587377
20
-0.2681509
40
0.5231041
50
233.4139408
51
233.7115775
0
ARC
8
DEFAULT_255_1_850
10
3.3768555
20
-0.2389333
40
0.5573708
50
221.7638864
51
233.7086214
0
ARC
8
DEFAULT_255_1_850
10
3.2916644
20
-0.315858
40
0.442591
50
207.7493195
51
221.681643
0
ARC
8
DEFAULT_255_1_850
10
3.2806507
20
-0.3256513
40
0.4282988
50
186.6800818
51
207.2758924
0
ARC
8
DEFAULT_255_1_850
10
3.393317
20
-0.309105
40
0.5421353
50
179.8926813
51
187.0318111
0
ARC
8
DEFAULT_255_1_850
10
3.3614667
20
-0.3026934
40
0.5103127
50
160.8949587
51
180.6058609
0
ARC
8
DEFAULT_255_1_850
10
3.2962091
20
-0.2850465
40
0.4428982
50
133.6801312
51
160.2890035
0
ARC
8
DEFAULT_255_1_850
10
3.3168789
20
-0.3037538
40
0.470707
50
98.0832402
51
133.9270702
0
ARC
8
DEFAULT_255_1_850
10
3.3525391
20
-0.488767
40
0.6589617
50
89.8066927
51
98.8910993
0
ARC
8
DEFAULT_255_1_850
10
3.3588018
20
-0.4154791
40
0.5856838
50
74.2980827
51
90.3951736
0
ARC
8
DEFAULT_255_1_850
10
3.3789083
20
-0.3351287
40
0.5028962
50
60.1201748
51
74.0258612
0
ARC
8
DEFAULT_255_1_850
10
3.3963139
20
-0.3098147
40
0.4722823
50
27.5686864
51
60.4211537
0
ARC
8
DEFAULT_255_1_850
10
3.3141992
20
-0.3545303
40
0.5657706
50
0.2627942
51
27.7342443
0
ARC
8
DEFAULT_255_1_850
10
3.2216547
20
-0.361072
40
0.6583725
50
359.9977427
51
0.7951548
0
ARC
8
DEFAULT_255_1_850
10
3.1158842
20
-0.3576114
40
0.5424829
50
359.6317649
51
10.1214477
0
ARC
8
DEFAULT_255_1_850
10
3.3040223
20
-0.3227376
40
0.3511466
50
9.9144514
51
26.9762502
0
ARC
8
DEFAULT_255_1_850
10
3.3749162
20
-0.2888222
40
0.2725883
50
27.3827042
51
41.1896876
0
ARC
8
DEFAULT_255_1_850
10
3.3906265
20
-0.2772619
40
0.2531581
50
41.5623567
51
77.8699143
0
ARC
8
DEFAULT_255_1_850
10
3.3578884
20
-0.4091355
40
0.3889904
50
77.237083
51
90.4604532
0
ARC
8
DEFAULT_255_1_850
10
3.3518528
20
-0.4048095
40
0.384663
50
89.5666183
51
102.0249001
0
ARC
8
DEFAULT_255_1_850
10
3.3232498
20
-0.2772171
40
0.2539152
50
101.7105277
51
125.6256295
0
ARC
8
DEFAULT_255_1_850
10
3.3091467
20
-0.2537306
40
0.2266205
50
126.1861582
51
135.4862038
0
ARC
8
DEFAULT_255_1_850
10
3.3230363
20
-0.2648923
40
0.2443567
50
135.9032318
51
165.7603261
0
ARC
8
DEFAULT_255_1_850
10
3.4427296
20
-0.2980384
40
0.3685355
50
165.3427791
51
178.6343383
0
ARC
8
DEFAULT_255_1_850
10
3.5515054
20
-0.3043856
40
0.4774466
50
178.183958
51
180.0107637
0
ARC
8
DEFAULT_255_1_850
10
3.3271142
20
-0.3077531
40
0.2530767
50
179.257884
51
204.9572845
0
ARC
8
DEFAULT_255_1_850
10
3.324123
20
-0.3052314
40
0.2514537
50
205.7658373
51
227.2920083
0
ARC
8
DEFAULT_255_1_850
10
3.447817
20
-0.1714529
40
0.4336539
50
227.2714039
51
238.0732801
0
ARC
8
DEFAULT_255_1_850
10
3.5989146
20
0.0678463
40
0.7166608
50
237.9381098
51
245.311184
0
ARC
8
DEFAULT_255_1_850
10
3.7716081
20
0.4390123
40
1.1260323
50
245.2157609
51
250.3284863
0
ARC
8
DEFAULT_255_1_850
10
3.8643537
20
0.6860837
40
1.3899111
50
250.156927
51
250.4538928
0
ARC
8
DEFAULT_255_1_850
10
2.9583048
20
-1.9767018
40
1.4230395
50
65.7189819
51
71.9454049
0
ARC
8
DEFAULT_255_1_850
10
3.1786025
20
-1.4924623
40
0.8910486
50
56.8756529
51
65.8273147
0
ARC
8
DEFAULT_255_1_850
10
3.3751805
20
-1.1949418
40
0.5344615
50
42.852574
51
57.0953119
0
ARC
8
DEFAULT_255_1_850
10
3.4617863
20
-1.1085024
40
0.4122058
50
41.6500028
51
42.2316059
0
ARC
8
DEFAULT_255_1_850
10
3.4465588
20
-1.1186853
40
0.4303587
50
10.8430114
51
41.315693
0
ARC
8
DEFAULT_255_1_850
10
3.2659079
20
-1.1586987
40
0.6153346
50
359.6695537
51
11.3379372
0
ARC
8
DEFAULT_255_1_850
10
3.3494505
20
-1.167344
40
0.5318061
50
343.7812627
51
0.5490863
0
ARC
8
DEFAULT_255_1_850
10
3.4627945
20
-1.1982844
40
0.4143356
50
312.4947388
51
343.5118222
0
ARC
8
DEFAULT_255_1_850
10
3.4303523
20
-1.1615519
40
0.4633362
50
283.269793
51
312.3843448
0
ARC
8
DEFAULT_255_1_850
10
3.3739708
20
-0.9427085
40
0.6892937
50
270.5070724
51
283.6557733
0
ARC
8
DEFAULT_255_1_850
10
3.3656629
20
-0.7627202
40
0.8693744
50
269.9961814
51
270.9496053
0
ARC
8
DEFAULT_255_1_850
10
3.3600142
20
-1.0254514
40
0.6066691
50
242.8411266
51
270.5280199
0
ARC
8
DEFAULT_255_1_850
10
3.3110033
20
-1.1140778
40
0.5054528
50
211.3826574
51
243.1985209
0
ARC
8
DEFAULT_255_1_850
10
3.3124436
20
-1.1149322
40
0.5062397
50
184.2430994
51
211.2152131
0
ARC
8
DEFAULT_255_1_850
10
3.4313537
20
-1.1000851
40
0.6259514
50
179.9557167
51
184.7930852
0
ARC
8
DEFAULT_255_1_850
10
3.4937911
20
-1.1032296
40
0.4667312
50
179.5545798
51
192.3103465
0
ARC
8
DEFAULT_255_1_850
10
3.3396605
20
-1.1386783
40
0.3085916
50
191.981365
51
217.1744426
0
ARC
8
DEFAULT_255_1_850
10
3.3156946
20
-1.1535014
40
0.2805517
50
217.7197761
51
225.2067416
0
ARC
8
DEFAULT_255_1_850
10
3.3298206
20
-1.1370181
40
0.3022058
50
225.5079481
51
258.5627929
0
ARC
8
DEFAULT_255_1_850
10
3.3625972
20
-0.9968636
40
0.4460976
50
258.0061485
51
270.3863219
0
ARC
8
DEFAULT_255_1_850
10
3.3686754
20
-0.9902294
40
0.4527321
50
269.6114237
51
280.2418435
0
ARC
8
DEFAULT_255_1_850
10
3.3992771
20
-1.1531451
40
0.2869735
50
280.0127991
51
297.5243719
0
ARC
8
DEFAULT_255_1_850
10
3.4299493
20
-1.2151867
40
0.2177846
50
297.9112399
51
315.3435832
0
ARC
8
DEFAULT_255_1_850
10
3.4070538
20
-1.1953337
40
0.2480326
50
315.7986907
51
348.0066609
0
ARC
8
DEFAULT_255_1_850
10
3.2904537
20
-1.1673665
40
0.3679122
50
347.5195974
51
0.4219535
0
LINE
8
DEFAULT_255_1_850
10
4.9944085
20
0.1460961
11
5.21608
21
0.1460961
0
LINE
8
DEFAULT_255_1_850
10
5.21608
20
0.1460961
11
5.21608
21
-1.100806
0
LINE
8
DEFAULT_255_1_850
10
4.137841
20
-1.100806
11
4.137841
21
0.1460961
0
LINE
8
DEFAULT_255_1_850
10
4.137841
20
0.1460961
11
4.357103
21
0.1460961
0
LINE
8
DEFAULT_255_1_850
10
4.357103
20
0.1460961
11
4.357103
21
-1.0923729
0
LINE
8
DEFAULT_255_1_850
10
4.9944085
20
-1.0923729
11
4.9944085
21
0.1460961
0
ARC
8
DEFAULT_255_1_850
10
4.5042719
20
-1.0995235
40
0.7118092
50
346.7433769
51
359.8967674
0
ARC
8
DEFAULT_255_1_850
10
4.7346248
20
-1.1574173
40
0.4743319
50
317.2264061
51
347.1695563
0
ARC
8
DEFAULT_255_1_850
10
4.7517933
20
-1.1686614
40
0.4541063
50
314.7536843
51
316.7967207
0
ARC
8
DEFAULT_255_1_850
10
4.7450509
20
-1.157074
40
0.4670943
50
283.4071467
51
314.3402713
0
ARC
8
DEFAULT_255_1_850
10
4.6845736
20
-0.9278397
40
0.704127
50
270.7064238
51
283.8690818
0
ARC
8
DEFAULT_255_1_850
10
4.6752245
20
-0.7369386
40
0.8951562
50
269.9954503
51
271.1541379
0
ARC
8
DEFAULT_255_1_850
10
4.6695319
20
-0.8480163
40
0.7840986
50
258.9563256
51
270.410775
0
ARC
8
DEFAULT_255_1_850
10
4.6143647
20
-1.1196485
40
0.5069334
50
239.7078123
51
259.1950907
0
ARC
8
DEFAULT_255_1_850
10
4.570092
20
-1.2026182
40
0.4129762
50
224.9051
51
239.2051798
0
ARC
8
DEFAULT_255_1_850
10
4.6012783
20
-1.177202
40
0.4530247
50
195.5445125
51
224.397445
0
ARC
8
DEFAULT_255_1_850
10
4.825559
20
-1.1098589
40
0.6871656
50
182.6483709
51
195.9427084
0
ARC
8
DEFAULT_255_1_850
10
5.0451251
20
-1.0926254
40
0.907321
50
180.5166004
51
183.0948181
0
ARC
8
DEFAULT_255_1_850
10
5.0204523
20
-1.0959491
40
0.663359
50
179.6911108
51
188.1171182
0
ARC
8
DEFAULT_255_1_850
10
4.772355
20
-1.1325564
40
0.4125801
50
187.9490931
51
200.7957337
0
ARC
8
DEFAULT_255_1_850
10
4.6354332
20
-1.1850517
40
0.2659412
50
200.6959803
51
220.2302095
0
ARC
8
DEFAULT_255_1_850
10
4.6043686
20
-1.2052232
40
0.2292441
50
221.3958039
51
251.2645324
0
ARC
8
DEFAULT_255_1_850
10
4.6521501
20
-1.0745168
40
0.3683864
50
250.7564293
51
264.3053914
0
ARC
8
DEFAULT_255_1_850
10
4.6736506
20
-0.8941912
40
0.5499666
50
263.9406147
51
270.1565591
0
ARC
8
DEFAULT_255_1_850
10
4.678443
20
-0.9284366
40
0.5157297
50
269.6345362
51
279.3961564
0
ARC
8
DEFAULT_255_1_850
10
4.7119816
20
-1.1229034
40
0.3183994
50
279.1550179
51
295.1652104
0
ARC
8
DEFAULT_255_1_850
10
4.7537411
20
-1.2127604
40
0.2193142
50
295.2733502
51
318.9414601
0
ARC
8
DEFAULT_255_1_850
10
4.7103089
20
-1.1812335
40
0.2728129
50
319.9401649
51
341.6452078
0
ARC
8
DEFAULT_255_1_850
10
4.5513331
20
-1.1258887
40
0.4411358
50
341.3247067
51
353.403429
0
ARC
8
DEFAULT_255_1_850
10
4.3087716
20
-1.0950312
40
0.685642
50
353.1704162
51
0.2221422
0
LINE
8
DEFAULT_255_1_850
10
6.0726475
20
-1.608
11
5.5558156
21
-1.608
0
LINE
8
DEFAULT_255_1_850
10
5.5558156
20
-1.608
11
5.5558156
21
0.1460961
0
LINE
8
DEFAULT_255_1_850
10
5.5558156
20
0.1460961
11
6.0557812
21
0.1460961
0
LINE
8
DEFAULT_255_1_850
10
6.0822854
20
-0.7875746
11
5.7762824
21
-0.7875746
0
LINE
8
DEFAULT_255_1_850
10
5.7762824
20
-0.7875746
11
5.7762824
21
-1.4188564
0
LINE
8
DEFAULT_255_1_850
10
5.7762824
20
-1.4188564
11
6.0774665
21
-1.4188564
0
LINE
8
DEFAULT_255_1_850
10
5.7762824
20
-0.0442522
11
5.7762824
21
-0.6020452
0
LINE
8
DEFAULT_255_1_850
10
5.7762824
20
-0.6020452
11
6.0593954
21
-0.6020452
0
LINE
8
DEFAULT_255_1_850
10
6.0557812
20
-0.0442522
11
5.7762824
21
-0.0442522
0
ARC
8
DEFAULT_255_1_850
10
6.0607929
20
-0.6370864
40
0.7831985
50
80.3227724
51
90.3666369
0
ARC
8
DEFAULT_255_1_850
10
6.1111956
20
-0.3523531
40
0.4940478
50
64.3838897
51
80.534137
0
ARC
8
DEFAULT_255_1_850
10
6.1675798
20
-0.2306457
40
0.3599302
50
46.2227871
51
64.1010727
0
ARC
8
DEFAULT_255_1_850
10
6.1594851
20
-0.2320681
40
0.3665899
50
17.4161932
51
45.4630845
0
ARC
8
DEFAULT_255_1_850
10
5.9673974
20
-0.2964052
40
0.5691416
50
4.3471814
51
17.8081813
0
ARC
8
DEFAULT_255_1_850
10
5.7318655
20
-0.3200839
40
0.8058113
50
359.9105717
51
4.7565449
0
ARC
8
DEFAULT_255_1_850
10
6.1210166
20
-0.3246267
40
0.4166721
50
342.5460206
51
0.4517375
0
ARC
8
DEFAULT_255_1_850
10
6.1702254
20
-0.337806
40
0.3657825
50
326.781447
51
342.2034219
0
ARC
8
DEFAULT_255_1_850
10
6.1308326
20
-0.3119576
40
0.4128986
50
295.7139866
51
326.775377
0
ARC
8
DEFAULT_255_1_850
10
6.2151852
20
-1.0030483
40
0.3328646
50
31.5928878
51
73.453915
0
ARC
8
DEFAULT_255_1_850
10
6.1464203
20
-1.0551264
40
0.4188037
50
32.168639
51
32.733279
0
ARC
8
DEFAULT_255_1_850
10
6.1177065
20
-1.0698053
40
0.4509339
50
9.614676
51
31.8049786
0
ARC
8
DEFAULT_255_1_850
10
5.9621116
20
-1.0994451
40
0.6093022
50
359.7587348
51
9.9189472
0
ARC
8
DEFAULT_255_1_850
10
5.8750766
20
-1.1071184
40
0.6963505
50
347.9585108
51
0.4202661
0
ARC
8
DEFAULT_255_1_850
10
6.1001916
20
-1.1578861
40
0.4656053
50
323.4878498
51
348.2891765
0
ARC
8
DEFAULT_255_1_850
10
6.1369241
20
-1.1802332
40
0.4228038
50
316.1632474
51
322.9600776
0
ARC
8
DEFAULT_255_1_850
10
6.1412494
20
-1.1803617
40
0.4196048
50
284.0513821
51
315.7668427
0
ARC
8
DEFAULT_255_1_850
10
6.0831129
20
-0.969848
40
0.6379566
50
271.1392528
51
284.526122
0
ARC
8
DEFAULT_255_1_850
10
6.0727761
20
-0.7839241
40
0.8240759
50
269.9910561
51
271.6007896
0
ARC
8
DEFAULT_255_1_850
10
6.0804652
20
-1.1120984
40
0.3067726
50
269.4399137
51
286.1513706
0
ARC
8
DEFAULT_255_1_850
10
6.0992306
20
-1.1805555
40
0.2357997
50
286.3988378
51
318.6520165
0
ARC
8
DEFAULT_255_1_850
10
6.0717832
20
-1.1576639
40
0.2715292
50
318.851957
51
344.194787
0
ARC
8
DEFAULT_255_1_850
10
5.93791
20
-1.1172966
40
0.4113426
50
343.8635126
51
356.672855
0
ARC
8
DEFAULT_255_1_850
10
5.7916535
20
-1.1049307
40
0.5580836
50
356.2768924
51
0.0524106
0
ARC
8
DEFAULT_255_1_850
10
5.8026852
20
-1.0984298
40
0.5470844
50
359.3726144
51
11.8777378
0
ARC
8
DEFAULT_255_1_850
10
6.0604772
20
-1.0413158
40
0.2830708
50
11.3046459
51
35.4669591
0
ARC
8
DEFAULT_255_1_850
10
6.1161351
20
-1.0105563
40
0.2200116
50
37.3534023
51
83.0347778
0
ARC
8
DEFAULT_255_1_850
10
6.084015
20
-1.1658666
40
0.378296
50
81.0579948
51
90.2619564
0
ARC
8
DEFAULT_255_1_850
10
6.0622486
20
-0.3263962
40
0.2756637
50
269.4069688
51
287.8256597
0
ARC
8
DEFAULT_255_1_850
10
6.0749945
20
-0.3726473
40
0.2277403
50
288.3349884
51
318.0315623
0
ARC
8
DEFAULT_255_1_850
10
6.0500795
20
-0.3495894
40
0.2616847
50
317.9258814
51
348.4570738
0
ARC
8
DEFAULT_255_1_850
10
5.9336859
20
-0.3226765
40
0.3811221
50
347.994343
51
0.3817994
0
ARC
8
DEFAULT_255_1_850
10
5.7962473
20
-0.3173119
40
0.5185599
50
359.6878686
51
8.0092888
0
ARC
8
DEFAULT_255_1_850
10
5.9956517
20
-0.288205
40
0.3170466
50
7.8214783
51
20.7458949
0
ARC
8
DEFAULT_255_1_850
10
6.1097522
20
-0.2439016
40
0.1946537
50
20.4475373
51
43.5002115
0
ARC
8
DEFAULT_255_1_850
10
6.1104329
20
-0.2495702
40
0.1981149
50
44.8250025
51
71.9701806
0
ARC
8
DEFAULT_255_1_850
10
6.0728667
20
-0.3576642
40
0.3125363
50
71.5549127
51
84.7501434
0
ARC
8
DEFAULT_255_1_850
10
6.0568296
20
-0.5006369
40
0.4563858
50
84.387587
51
90.1316197
0
LINE
8
DEFAULT_255_1_850
10
8.0411867
20
-0.9213003
11
7.6869942
21
-0.9213003
0
LINE
8
DEFAULT_255_1_850
10
7.6869942
20
-0.9213003
11
7.6869942
21
-1.608
0
LINE
8
DEFAULT_255_1_850
10
7.6869942
20
-1.608
11
7.4665274
21
-1.608
0
LINE
8
DEFAULT_255_1_850
10
7.4665274
20
-1.608
11
7.4665274
21
0.1460961
0
LINE
8
DEFAULT_255_1_850
10
7.4665274
20
0.1460961
11
8.0255251
21
0.1460961
0
LINE
8
DEFAULT_255_1_850
10
7.6869942
20
-0.0442522
11
7.6869942
21
-0.7321567
0
LINE
8
DEFAULT_255_1_850
10
7.6869942
20
-0.7321567
11
8.0255251
21
-0.7321567
0
LINE
8
DEFAULT_255_1_850
10
8.0267298
20
-0.0442522
11
7.6869942
21
-0.0442522
0
ARC
8
DEFAULT_255_1_850
10
8.0311394
20
-0.5113656
40
0.6574857
50
76.2183586
51
90.4892548
0
ARC
8
DEFAULT_255_1_850
10
8.0814266
20
-0.3152354
40
0.4550274
50
43.8020658
51
76.4849149
0
ARC
8
DEFAULT_255_1_850
10
8.0509706
20
-0.3392495
40
0.4936447
50
10.3313147
51
43.3669374
0
ARC
8
DEFAULT_255_1_850
10
7.8368969
20
-0.3861406
40
0.712699
50
359.688798
51
10.9534791
0
ARC
8
DEFAULT_255_1_850
10
7.7786044
20
-0.3954521
40
0.7710002
50
348.9275809
51
0.4043104
0
ARC
8
DEFAULT_255_1_850
10
8.0424923
20
-0.4493658
40
0.5016753
50
329.223519
51
349.1823235
0
ARC
8
DEFAULT_255_1_850
10
8.1194503
20
-0.4908083
40
0.4143666
50
315.789665
51
328.7018743
0
ARC
8
DEFAULT_255_1_850
10
8.0986098
20
-0.4657591
40
0.4467846
50
284.5173433
51
315.3507094
0
ARC
8
DEFAULT_255_1_850
10
8.0367457
20
-0.2484232
40
0.6727108
50
271.8469694
51
284.978007
0
ARC
8
DEFAULT_255_1_850
10
8.0242608
20
-0.0671635
40
0.8543045
50
271.135242
51
272.2920571
0
ARC
8
DEFAULT_255_1_850
10
8.0287986
20
-0.3400189
40
0.3921514
50
269.5217208
51
282.9269428
0
ARC
8
DEFAULT_255_1_850
10
8.0614525
20
-0.4724261
40
0.2558045
50
282.4328813
51
314.2453813
0
ARC
8
DEFAULT_255_1_850
10
8.0649988
20
-0.4788173
40
0.2487591
50
314.6873738
51
318.3273114
0
ARC
8
DEFAULT_255_1_850
10
8.035295
20
-0.4562437
40
0.2859698
50
318.9059171
51
343.5104582
0
ARC
8
DEFAULT_255_1_850
10
7.888056
20
-0.4099466
40
0.4403019
50
343.1720393
51
355.8492889
0
ARC
8
DEFAULT_255_1_850
10
7.7139182
20
-0.3932996
40
0.6152009
50
355.4768297
51
0.0818237
0
ARC
8
DEFAULT_255_1_850
10
7.8267241
20
-0.3889513
40
0.5024065
50
359.6043004
51
11.698981
0
ARC
8
DEFAULT_255_1_850
10
7.9846355
20
-0.3545939
40
0.3408128
50
11.4259576
51
34.1663168
0
ARC
8
DEFAULT_255_1_850
10
8.0162436
20
-0.3363281
40
0.3044135
50
34.6627824
51
40.302531
0
ARC
8
DEFAULT_255_1_850
10
8.0465081
20
-0.3098476
40
0.264205
50
40.1682287
51
84.6028115
0
ARC
8
DEFAULT_255_1_850
10
8.0274677
20
-0.4214217
40
0.3771702
50
83.3173419
51
90.1120893
0
LINE
8
DEFAULT_255_1_850
10
9.6242102
20
-1.608
11
9.4856655
21
-1.1502002
0
LINE
8
DEFAULT_255_1_850
10
9.4856655
20
-1.1502002
11
8.8929353
21
-1.1502002
0
LINE
8
DEFAULT_255_1_850
10
8.8929353
20
-1.1502002
11
8.7568
21
-1.608
0
LINE
8
DEFAULT_255_1_850
10
8.7568
20
-1.608
11
8.5303096
21
-1.608
0
LINE
8
DEFAULT_255_1_850
10
8.5303096
20
-1.608
11
9.095331
21
0.1460961
0
LINE
8
DEFAULT_255_1_850
10
9.095331
20
0.1460961
11
9.2844746
21
0.1460961
0
LINE
8
DEFAULT_255_1_850
10
9.2844746
20
0.1460961
11
9.8507006
21
-1.608
0
LINE
8
DEFAULT_255_1_850
10
9.8507006
20
-1.608
11
9.6242102
21
-1.608
0
LINE
8
DEFAULT_255_1_850
10
9.1893004
20
-0.1623164
11
8.9507626
21
-0.9598519
0
LINE
8
DEFAULT_255_1_850
10
8.9507626
20
-0.9598519
11
9.4290429
21
-0.9598519
0
LINE
8
DEFAULT_255_1_850
10
9.4290429
20
-0.9598519
11
9.1893004
21
-0.1623164
0
LINE
8
DEFAULT_255_1_850
10
11.2349427
20
0.1460961
11
11.2349427
21
-1.608
0
LINE
8
DEFAULT_255_1_850
10
11.2349427
20
-1.608
11
11.0132712
21
-1.608
0
LINE
8
DEFAULT_255_1_850
10
11.0132712
20
-1.608
11
10.3109099
21
-0.2562858
0
LINE
8
DEFAULT_255_1_850
10
10.3109099
20
-0.2562858
11
10.3109099
21
-1.608
0
LINE
8
DEFAULT_255_1_850
10
10.3109099
20
-1.608
11
10.0892384
21
-1.608
0
LINE
8
DEFAULT_255_1_850
10
10.0892384
20
-1.608
11
10.0892384
21
0.1460961
0
LINE
8
DEFAULT_255_1_850
10
10.0892384
20
0.1460961
11
10.3109099
21
0.1460961
0
LINE
8
DEFAULT_255_1_850
10
10.3109099
20
0.1460961
11
11.0156807
21
-1.2116417
0
LINE
8
DEFAULT_255_1_850
10
11.0156807
20
-1.2116417
11
11.0156807
21
0.1460961
0
LINE
8
DEFAULT_255_1_850
10
11.0156807
20
0.1460961
11
11.2349427
21
0.1460961
0
LINE
8
DEFAULT_255_1_850
10
12.45775
20
-0.6080688
11
12.45775
21
-0.7972125
0
LINE
8
DEFAULT_255_1_850
10
12.45775
20
-0.7972125
11
11.8373108
21
-0.7972125
0
LINE
8
DEFAULT_255_1_850
10
11.8373108
20
-0.7972125
11
11.8373108
21
-1.4188564
0
LINE
8
DEFAULT_255_1_850
10
11.8373108
20
-1.4188564
11
12.5601526
21
-1.4188564
0
LINE
8
DEFAULT_255_1_850
10
12.5601526
20
-1.4188564
11
12.5601526
21
-1.608
0
LINE
8
DEFAULT_255_1_850
10
12.5601526
20
-1.608
11
11.6168441
21
-1.608
0
LINE
8
DEFAULT_255_1_850
10
11.6168441
20
-1.608
11
11.6168441
21
0.1460961
0
LINE
8
DEFAULT_255_1_850
10
11.6168441
20
0.1460961
11
12.5481053
21
0.1460961
0
LINE
8
DEFAULT_255_1_850
10
12.5481053
20
0.1460961
11
12.5481053
21
-0.0442522
0
LINE
8
DEFAULT_255_1_850
10
12.5481053
20
-0.0442522
11
11.8373108
21
-0.0442522
0
LINE
8
DEFAULT_255_1_850
10
11.8373108
20
-0.0442522
11
11.8373108
21
-0.6080688
0
LINE
8
DEFAULT_255_1_850
10
11.8373108
20
-0.6080688
11
12.45775
21
-0.6080688
0
LINE
8
DEFAULT_255_1_850
10
13.0637324
20
0.1460961
11
13.0637324
21
-1.4188564
0
LINE
8
DEFAULT_255_1_850
10
13.0637324
20
-1.4188564
11
13.7516369
21
-1.4188564
0
LINE
8
DEFAULT_255_1_850
10
13.7516369
20
-1.4188564
11
13.7516369
21
-1.608
0
LINE
8
DEFAULT_255_1_850
10
13.7516369
20
-1.608
11
12.8420609
21
-1.608
0
LINE
8
DEFAULT_255_1_850
10
12.8420609
20
-1.608
11
12.8420609
21
0.1460961
0
LINE
8
DEFAULT_255_1_850
10
12.8420609
20
0.1460961
11
13.0637324
21
0.1460961
0
LINE
8
DEFAULT_255_2_778_8
10
1.5165502
20
11.6945082
11
15.8040502
21
11.6945082
0
LINE
8
DEFAULT_255_2_778_8
10
15.8040502
20
11.6945082
11
15.8040502
21
2.4341082
0
LINE
8
DEFAULT_255_2_778_8
10
15.8040502
20
2.4341082
11
1.5165502
21
2.4341082
0
LINE
8
DEFAULT_255_2_778_8
10
1.5165502
20
2.4341082
11
1.5165502
21
11.6945082
0
ENDSEC
0
EOF