0
SECTION
2
HEADER
9
$MEASUREMENT
70
1
0
ENDSEC
0
SECTION
2
TABLES
0
TABLE
2
LTYPE
0
LTYPE
72
65
70
64
2
CONTINUOUS
3
______
73
0
40
0
0
ENDTAB
0
TABLE
2
LAYER
0
LAYER
2
DEFAULT_255_2_778
70
0
62
255
6
CONTINUOUS
0
LAYER
2
DEFAULT_255_1_234
70
0
62
255
6
CONTINUOUS
0
ENDTAB
0
ENDSEC
0
SECTION
2
ENTITIES
0
LINE
8
DEFAULT_255_2_778
10
8.912
20
10.4510333
11
8.912
21
5.1593333
0
LINE
8
DEFAULT_255_2_778
10
8.912
20
2.5135333
11
8.912
21
-2.7781667
0
LINE
8
DEFAULT_255_2_778
10
12.8806834
20
3.8365333
11
10.2348834
21
6.4823333
0
LINE
8
DEFAULT_255_2_778
10
10.2348834
20
6.4823333
11
10.2348834
21
1.1906333
0
LINE
8
DEFAULT_255_2_778
10
10.2348834
20
1.1906333
11
12.8806834
21
3.8365333
0
LINE
8
DEFAULT_255_2_778
10
8.9120417
20
5.1594
11
10.2349417
21
5.1594
0
LINE
8
DEFAULT_255_2_778
10
8.9120417
20
2.5136
11
10.2349417
21
2.5136
0
LINE
8
DEFAULT_255_1_234
10
5.4597293
20
8.162
11
5.3480881
21
8.4672061
0
LINE
8
DEFAULT_255_1_234
10
5.3480881
20
8.4672061
11
4.8581521
21
8.4672061
0
LINE
8
DEFAULT_255_1_234
10
4.8581521
20
8.4672061
11
4.7481173
21
8.162
0
LINE
8
DEFAULT_255_1_234
10
4.7481173
20
8.162
11
4.5890889
21
8.162
0
LINE
8
DEFAULT_255_1_234
10
4.5890889
20
8.162
11
5.0356535
21
9.3314211
0
LINE
8
DEFAULT_255_1_234
10
5.0356535
20
9.3314211
11
5.1705867
21
9.3314211
0
LINE
8
DEFAULT_255_1_234
10
5.1705867
20
9.3314211
11
5.6179545
21
8.162
0
LINE
8
DEFAULT_255_1_234
10
5.6179545
20
8.162
11
5.4597293
21
8.162
0
LINE
8
DEFAULT_255_1_234
10
5.1031201
20
9.1410689
11
4.9047362
21
8.5941075
0
LINE
8
DEFAULT_255_1_234
10
4.9047362
20
8.5941075
11
5.3023072
21
8.5941075
0
LINE
8
DEFAULT_255_1_234
10
5.3023072
20
8.5941075
11
5.1031201
21
9.1410689
0
LINE
8
DEFAULT_255_1_234
10
6.225154
20
9.3370433
11
6.225154
21
8.162
0
LINE
8
DEFAULT_255_1_234
10
6.225154
20
8.162
11
6.0757636
21
8.162
0
LINE
8
DEFAULT_255_1_234
10
6.0757636
20
8.162
11
6.0757636
21
9.1523133
0
LINE
8
DEFAULT_255_1_234
10
6.0757636
20
9.1523133
11
5.7761798
21
9.0422785
0
LINE
8
DEFAULT_255_1_234
10
5.7761798
20
9.0422785
11
5.7761798
21
9.1772117
0
LINE
8
DEFAULT_255_1_234
10
5.7761798
20
9.1772117
11
6.2018619
21
9.3370433
0
LINE
8
DEFAULT_255_1_234
10
6.2018619
20
9.3370433
11
6.225154
21
9.3370433
0
LINE
8
DEFAULT_255_1_234
10
5.4510293
20
-1.8419
11
5.3393881
21
-1.5366939
0
LINE
8
DEFAULT_255_1_234
10
5.3393881
20
-1.5366939
11
4.8494521
21
-1.5366939
0
LINE
8
DEFAULT_255_1_234
10
4.8494521
20
-1.5366939
11
4.7394173
21
-1.8419
0
LINE
8
DEFAULT_255_1_234
10
4.7394173
20
-1.8419
11
4.5803889
21
-1.8419
0
LINE
8
DEFAULT_255_1_234
10
4.5803889
20
-1.8419
11
5.0269535
21
-0.6724789
0
LINE
8
DEFAULT_255_1_234
10
5.0269535
20
-0.6724789
11
5.1618867
21
-0.6724789
0
LINE
8
DEFAULT_255_1_234
10
5.1618867
20
-0.6724789
11
5.6092545
21
-1.8419
0
LINE
8
DEFAULT_255_1_234
10
5.6092545
20
-1.8419
11
5.4510293
21
-1.8419
0
LINE
8
DEFAULT_255_1_234
10
5.0944201
20
-0.8628311
11
4.8960362
21
-1.4097925
0
LINE
8
DEFAULT_255_1_234
10
4.8960362
20
-1.4097925
11
5.2936072
21
-1.4097925
0
LINE
8
DEFAULT_255_1_234
10
5.2936072
20
-1.4097925
11
5.0944201
21
-0.8628311
0
LINE
8
DEFAULT_255_1_234
10
6.4943521
20
-1.7206208
11
6.4943521
21
-1.8419
0
LINE
8
DEFAULT_255_1_234
10
6.4943521
20
-1.8419
11
5.7281243
21
-1.8419
0
LINE
8
DEFAULT_255_1_234
10
5.7281243
20
-1.8419
11
5.7281243
21
-1.7350779
0
LINE
8
DEFAULT_255_1_234
10
5.7281243
20
-1.7350779
11
6.1329239
21
-1.2853005
0
LINE
8
DEFAULT_255_1_234
10
5.8542226
20
-1.0170405
11
5.7056354
21
-1.0170405
0
LINE
8
DEFAULT_255_1_234
10
6.2204698
20
-1.3808782
11
5.907232
21
-1.7206208
0
LINE
8
DEFAULT_255_1_234
10
5.907232
20
-1.7206208
11
6.4943521
21
-1.7206208
0
ARC
8
DEFAULT_255_1_234
10
4.7839072
20
-0.0923473
40
1.8008286
50
318.5132453
51
320.7828378
0
ARC
8
DEFAULT_255_1_234
10
5.3126047
20
-0.5226574
40
1.1191493
50
320.7372736
51
323.9737074
0
ARC
8
DEFAULT_255_1_234
10
5.7045903
20
-0.8066639
40
0.6350923
50
323.8961724
51
328.6421089
0
ARC
8
DEFAULT_255_1_234
10
5.9092498
20
-0.9328969
40
0.3946393
50
328.8299013
51
331.789948
0
ARC
8
DEFAULT_255_1_234
10
6.0089677
20
-0.9843491
40
0.2824501
50
331.4255242
51
352.9364833
0
ARC
8
DEFAULT_255_1_234
10
6.0226177
20
-0.9874024
40
0.2685315
50
353.2248685
51
0.0169286
0
ARC
8
DEFAULT_255_1_234
10
6.0436054
20
-0.985105
40
0.2475536
50
359.4866256
51
15.9339782
0
ARC
8
DEFAULT_255_1_234
10
6.094304
20
-0.9714714
40
0.1950618
50
16.1714718
51
43.5284424
0
ARC
8
DEFAULT_255_1_234
10
6.1020348
20
-0.9637427
40
0.184134
50
43.4415429
51
83.1661404
0
ARC
8
DEFAULT_255_1_234
10
6.0886266
20
-1.0374229
40
0.258926
50
82.160215
51
90.1505798
0
ARC
8
DEFAULT_255_1_234
10
6.0854694
20
-1.0911135
40
0.3126255
50
89.5460705
51
102.5418777
0
ARC
8
DEFAULT_255_1_234
10
6.061178
20
-0.9880335
40
0.2067346
50
102.1739365
51
129.2061916
0
ARC
8
DEFAULT_255_1_234
10
6.0532852
20
-0.9755906
40
0.1921118
50
129.7279328
51
135.7542026
0
ARC
8
DEFAULT_255_1_234
10
6.0654379
20
-0.9852955
40
0.2075944
50
136.175737
51
166.3674722
0
ARC
8
DEFAULT_255_1_234
10
6.1661298
20
-1.0122818
40
0.3118201
50
165.9092917
51
178.8683903
0
ARC
8
DEFAULT_255_1_234
10
6.252616
20
-1.0169821
40
0.3983935
50
178.438168
51
180.0083905
0
ARC
8
DEFAULT_255_1_234
10
6.1124762
20
-1.0130769
40
0.4068601
50
163.2878735
51
180.5581814
0
ARC
8
DEFAULT_255_1_234
10
6.0323023
20
-0.991016
40
0.3237344
50
133.454115
51
162.9470031
0
ARC
8
DEFAULT_255_1_234
10
6.0501565
20
-1.01
40
0.349795
50
100.7869394
51
133.4384016
0
ARC
8
DEFAULT_255_1_234
10
6.0849336
20
-1.1648681
40
0.5084616
50
89.6605301
51
101.3704185
0
ARC
8
DEFAULT_255_1_234
10
6.0915675
20
-1.1587504
40
0.502348
50
78.2171172
51
90.4130393
0
ARC
8
DEFAULT_255_1_234
10
6.1270753
20
-0.9963363
40
0.3361092
50
55.9268222
51
78.4888551
0
ARC
8
DEFAULT_255_1_234
10
6.1467193
20
-0.9624676
40
0.2970617
50
47.9292255
51
55.4054003
0
ARC
8
DEFAULT_255_1_234
10
6.1568754
20
-0.9521498
40
0.2825983
50
4.3347696
51
48.0560701
0
ARC
8
DEFAULT_255_1_234
10
6.0473148
20
-0.9691399
40
0.393225
50
359.925209
51
5.5967654
0
ARC
8
DEFAULT_255_1_234
10
6.0902039
20
-0.9635184
40
0.3503892
50
337.8914096
51
358.9967724
0
ARC
8
DEFAULT_255_1_234
10
5.8188451
20
-0.8588294
40
0.6412172
50
326.9135351
51
338.3505194
0
ARC
8
DEFAULT_255_1_234
10
5.4202755
20
-0.6033716
40
1.1146189
50
319.6472867
51
327.095818
0
ARC
8
DEFAULT_255_1_234
10
5.0369758
20
-0.2872
40
1.6114559
50
317.2586784
51
319.9046139
0
ENDSEC
0
EOF