0
SECTION
2
HEADER
9
$MEASUREMENT
70
1
0
ENDSEC
0
SECTION
2
TABLES
0
TABLE
2
LTYPE
0
LTYPE
72
65
70
64
2
CONTINUOUS
3
______
73
0
40
0
0
ENDTAB
0
TABLE
2
LAYER
0
LAYER
2
DEFAULT_255_2_778
70
0
62
255
6
CONTINUOUS
0
LAYER
2
DEFAULT_255_1_234
70
0
62
255
6
CONTINUOUS
0
ENDTAB
0
ENDSEC
0
SECTION
2
ENTITIES
0
LINE
8
DEFAULT_255_2_778
10
6.9276
20
2.5135333
11
6.9276
21
-2.7781667
0
LINE
8
DEFAULT_255_2_778
10
6.9276
20
5.1593333
11
6.9276
21
10.4510333
0
LINE
8
DEFAULT_255_2_778
10
4.2817667
20
5.1594166
11
9.5734667
21
5.1594166
0
LINE
8
DEFAULT_255_2_778
10
9.5734667
20
5.1594166
11
9.5734667
21
2.5136166
0
LINE
8
DEFAULT_255_2_778
10
9.5734667
20
2.5136166
11
4.2817667
21
2.5136166
0
LINE
8
DEFAULT_255_2_778
10
4.2817667
20
2.5136166
11
4.2817667
21
5.1594166
0
LINE
8
DEFAULT_255_1_234
10
3.4754293
20
8.162
11
3.3637881
21
8.4672061
0
LINE
8
DEFAULT_255_1_234
10
3.3637881
20
8.4672061
11
2.8738521
21
8.4672061
0
LINE
8
DEFAULT_255_1_234
10
2.8738521
20
8.4672061
11
2.7638173
21
8.162
0
LINE
8
DEFAULT_255_1_234
10
2.7638173
20
8.162
11
2.6047889
21
8.162
0
LINE
8
DEFAULT_255_1_234
10
2.6047889
20
8.162
11
3.0513535
21
9.3314211
0
LINE
8
DEFAULT_255_1_234
10
3.0513535
20
9.3314211
11
3.1862867
21
9.3314211
0
LINE
8
DEFAULT_255_1_234
10
3.1862867
20
9.3314211
11
3.6336545
21
8.162
0
LINE
8
DEFAULT_255_1_234
10
3.6336545
20
8.162
11
3.4754293
21
8.162
0
LINE
8
DEFAULT_255_1_234
10
3.1188201
20
9.1410689
11
2.9204362
21
8.5941075
0
LINE
8
DEFAULT_255_1_234
10
2.9204362
20
8.5941075
11
3.3180072
21
8.5941075
0
LINE
8
DEFAULT_255_1_234
10
3.3180072
20
8.5941075
11
3.1188201
21
9.1410689
0
LINE
8
DEFAULT_255_1_234
10
4.240854
20
9.3370433
11
4.240854
21
8.162
0
LINE
8
DEFAULT_255_1_234
10
4.240854
20
8.162
11
4.0914636
21
8.162
0
LINE
8
DEFAULT_255_1_234
10
4.0914636
20
8.162
11
4.0914636
21
9.1523133
0
LINE
8
DEFAULT_255_1_234
10
4.0914636
20
9.1523133
11
3.7918798
21
9.0422785
0
LINE
8
DEFAULT_255_1_234
10
3.7918798
20
9.0422785
11
3.7918798
21
9.1772117
0
LINE
8
DEFAULT_255_1_234
10
3.7918798
20
9.1772117
11
4.2175619
21
9.3370433
0
LINE
8
DEFAULT_255_1_234
10
4.2175619
20
9.3370433
11
4.240854
21
9.3370433
0
LINE
8
DEFAULT_255_1_234
10
3.4666293
20
-1.8419
11
3.3549881
21
-1.5366939
0
LINE
8
DEFAULT_255_1_234
10
3.3549881
20
-1.5366939
11
2.8650521
21
-1.5366939
0
LINE
8
DEFAULT_255_1_234
10
2.8650521
20
-1.5366939
11
2.7550173
21
-1.8419
0
LINE
8
DEFAULT_255_1_234
10
2.7550173
20
-1.8419
11
2.5959889
21
-1.8419
0
LINE
8
DEFAULT_255_1_234
10
2.5959889
20
-1.8419
11
3.0425535
21
-0.6724789
0
LINE
8
DEFAULT_255_1_234
10
3.0425535
20
-0.6724789
11
3.1774867
21
-0.6724789
0
LINE
8
DEFAULT_255_1_234
10
3.1774867
20
-0.6724789
11
3.6248545
21
-1.8419
0
LINE
8
DEFAULT_255_1_234
10
3.6248545
20
-1.8419
11
3.4666293
21
-1.8419
0
LINE
8
DEFAULT_255_1_234
10
3.1100201
20
-0.8628311
11
2.9116362
21
-1.4097925
0
LINE
8
DEFAULT_255_1_234
10
2.9116362
20
-1.4097925
11
3.3092072
21
-1.4097925
0
LINE
8
DEFAULT_255_1_234
10
3.3092072
20
-1.4097925
11
3.1100201
21
-0.8628311
0
LINE
8
DEFAULT_255_1_234
10
4.5099521
20
-1.7206208
11
4.5099521
21
-1.8419
0
LINE
8
DEFAULT_255_1_234
10
4.5099521
20
-1.8419
11
3.7437243
21
-1.8419
0
LINE
8
DEFAULT_255_1_234
10
3.7437243
20
-1.8419
11
3.7437243
21
-1.7350779
0
LINE
8
DEFAULT_255_1_234
10
3.7437243
20
-1.7350779
11
4.1485239
21
-1.2853005
0
LINE
8
DEFAULT_255_1_234
10
3.8698226
20
-1.0170405
11
3.7212354
21
-1.0170405
0
LINE
8
DEFAULT_255_1_234
10
4.2360698
20
-1.3808782
11
3.922832
21
-1.7206208
0
LINE
8
DEFAULT_255_1_234
10
3.922832
20
-1.7206208
11
4.5099521
21
-1.7206208
0
ARC
8
DEFAULT_255_1_234
10
2.7995072
20
-0.0923473
40
1.8008286
50
318.5132453
51
320.7828378
0
ARC
8
DEFAULT_255_1_234
10
3.3282047
20
-0.5226574
40
1.1191493
50
320.7372736
51
323.9737074
0
ARC
8
DEFAULT_255_1_234
10
3.7201903
20
-0.8066639
40
0.6350923
50
323.8961724
51
328.6421089
0
ARC
8
DEFAULT_255_1_234
10
3.9248498
20
-0.9328969
40
0.3946393
50
328.8299013
51
331.789948
0
ARC
8
DEFAULT_255_1_234
10
4.0245677
20
-0.9843491
40
0.2824501
50
331.4255242
51
352.9364833
0
ARC
8
DEFAULT_255_1_234
10
4.0382177
20
-0.9874024
40
0.2685315
50
353.2248685
51
0.0169286
0
ARC
8
DEFAULT_255_1_234
10
4.0592054
20
-0.985105
40
0.2475536
50
359.4866256
51
15.9339782
0
ARC
8
DEFAULT_255_1_234
10
4.109904
20
-0.9714714
40
0.1950618
50
16.1714718
51
43.5284424
0
ARC
8
DEFAULT_255_1_234
10
4.1176348
20
-0.9637427
40
0.184134
50
43.4415429
51
83.1661404
0
ARC
8
DEFAULT_255_1_234
10
4.1042266
20
-1.0374229
40
0.258926
50
82.160215
51
90.1505798
0
ARC
8
DEFAULT_255_1_234
10
4.1010694
20
-1.0911135
40
0.3126255
50
89.5460705
51
102.5418777
0
ARC
8
DEFAULT_255_1_234
10
4.076778
20
-0.9880335
40
0.2067346
50
102.1739365
51
129.2061916
0
ARC
8
DEFAULT_255_1_234
10
4.0688852
20
-0.9755906
40
0.1921118
50
129.7279328
51
135.7542026
0
ARC
8
DEFAULT_255_1_234
10
4.0810379
20
-0.9852955
40
0.2075944
50
136.175737
51
166.3674722
0
ARC
8
DEFAULT_255_1_234
10
4.1817298
20
-1.0122818
40
0.3118201
50
165.9092917
51
178.8683903
0
ARC
8
DEFAULT_255_1_234
10
4.268216
20
-1.0169821
40
0.3983935
50
178.438168
51
180.0083905
0
ARC
8
DEFAULT_255_1_234
10
4.1280762
20
-1.0130769
40
0.4068601
50
163.2878735
51
180.5581814
0
ARC
8
DEFAULT_255_1_234
10
4.0479023
20
-0.991016
40
0.3237344
50
133.454115
51
162.9470031
0
ARC
8
DEFAULT_255_1_234
10
4.0657565
20
-1.01
40
0.349795
50
100.7869394
51
133.4384016
0
ARC
8
DEFAULT_255_1_234
10
4.1005336
20
-1.1648681
40
0.5084616
50
89.6605301
51
101.3704185
0
ARC
8
DEFAULT_255_1_234
10
4.1071675
20
-1.1587504
40
0.502348
50
78.2171172
51
90.4130393
0
ARC
8
DEFAULT_255_1_234
10
4.1426753
20
-0.9963363
40
0.3361092
50
55.9268222
51
78.4888551
0
ARC
8
DEFAULT_255_1_234
10
4.1623193
20
-0.9624676
40
0.2970617
50
47.9292255
51
55.4054003
0
ARC
8
DEFAULT_255_1_234
10
4.1724754
20
-0.9521498
40
0.2825983
50
4.3347696
51
48.0560701
0
ARC
8
DEFAULT_255_1_234
10
4.0629148
20
-0.9691399
40
0.393225
50
359.925209
51
5.5967654
0
ARC
8
DEFAULT_255_1_234
10
4.1058039
20
-0.9635184
40
0.3503892
50
337.8914096
51
358.9967724
0
ARC
8
DEFAULT_255_1_234
10
3.8344451
20
-0.8588294
40
0.6412172
50
326.9135351
51
338.3505194
0
ARC
8
DEFAULT_255_1_234
10
3.4358755
20
-0.6033716
40
1.1146189
50
319.6472867
51
327.095818
0
ARC
8
DEFAULT_255_1_234
10
3.0525758
20
-0.2872
40
1.6114559
50
317.2586784
51
319.9046139
0
ENDSEC
0
EOF