0
SECTION
2
HEADER
9
$MEASUREMENT
70
1
0
ENDSEC
0
SECTION
2
TABLES
0
TABLE
2
LTYPE
0
LTYPE
72
65
70
64
2
CONTINUOUS
3
______
73
0
40
0
0
ENDTAB
0
TABLE
2
LAYER
0
LAYER
2
DEFAULT_255_1_234
70
0
62
255
6
CONTINUOUS
0
LAYER
2
DEFAULT_255_2_778
70
0
62
255
6
CONTINUOUS
0
ENDTAB
0
ENDSEC
0
SECTION
2
ENTITIES
0
LINE
8
DEFAULT_255_1_234
10
3.4752293
20
8.162
11
3.3635881
21
8.4672061
0
LINE
8
DEFAULT_255_1_234
10
3.3635881
20
8.4672061
11
2.8736521
21
8.4672061
0
LINE
8
DEFAULT_255_1_234
10
2.8736521
20
8.4672061
11
2.7636173
21
8.162
0
LINE
8
DEFAULT_255_1_234
10
2.7636173
20
8.162
11
2.6045889
21
8.162
0
LINE
8
DEFAULT_255_1_234
10
2.6045889
20
8.162
11
3.0511535
21
9.3314211
0
LINE
8
DEFAULT_255_1_234
10
3.0511535
20
9.3314211
11
3.1860867
21
9.3314211
0
LINE
8
DEFAULT_255_1_234
10
3.1860867
20
9.3314211
11
3.6334545
21
8.162
0
LINE
8
DEFAULT_255_1_234
10
3.6334545
20
8.162
11
3.4752293
21
8.162
0
LINE
8
DEFAULT_255_1_234
10
3.1186201
20
9.1410689
11
2.9202362
21
8.5941075
0
LINE
8
DEFAULT_255_1_234
10
2.9202362
20
8.5941075
11
3.3178072
21
8.5941075
0
LINE
8
DEFAULT_255_1_234
10
3.3178072
20
8.5941075
11
3.1186201
21
9.1410689
0
LINE
8
DEFAULT_255_1_234
10
4.240654
20
9.3370433
11
4.240654
21
8.162
0
LINE
8
DEFAULT_255_1_234
10
4.240654
20
8.162
11
4.0912636
21
8.162
0
LINE
8
DEFAULT_255_1_234
10
4.0912636
20
8.162
11
4.0912636
21
9.1523133
0
LINE
8
DEFAULT_255_1_234
10
4.0912636
20
9.1523133
11
3.7916798
21
9.0422785
0
LINE
8
DEFAULT_255_1_234
10
3.7916798
20
9.0422785
11
3.7916798
21
9.1772117
0
LINE
8
DEFAULT_255_1_234
10
3.7916798
20
9.1772117
11
4.2173619
21
9.3370433
0
LINE
8
DEFAULT_255_1_234
10
4.2173619
20
9.3370433
11
4.240654
21
9.3370433
0
LINE
8
DEFAULT_255_1_234
10
3.4665293
20
-1.8419
11
3.3548881
21
-1.5366939
0
LINE
8
DEFAULT_255_1_234
10
3.3548881
20
-1.5366939
11
2.8649521
21
-1.5366939
0
LINE
8
DEFAULT_255_1_234
10
2.8649521
20
-1.5366939
11
2.7549173
21
-1.8419
0
LINE
8
DEFAULT_255_1_234
10
2.7549173
20
-1.8419
11
2.5958889
21
-1.8419
0
LINE
8
DEFAULT_255_1_234
10
2.5958889
20
-1.8419
11
3.0424535
21
-0.6724789
0
LINE
8
DEFAULT_255_1_234
10
3.0424535
20
-0.6724789
11
3.1773867
21
-0.6724789
0
LINE
8
DEFAULT_255_1_234
10
3.1773867
20
-0.6724789
11
3.6247545
21
-1.8419
0
LINE
8
DEFAULT_255_1_234
10
3.6247545
20
-1.8419
11
3.4665293
21
-1.8419
0
LINE
8
DEFAULT_255_1_234
10
3.1099201
20
-0.8628311
11
2.9115362
21
-1.4097925
0
LINE
8
DEFAULT_255_1_234
10
2.9115362
20
-1.4097925
11
3.3091072
21
-1.4097925
0
LINE
8
DEFAULT_255_1_234
10
3.3091072
20
-1.4097925
11
3.1099201
21
-0.8628311
0
LINE
8
DEFAULT_255_1_234
10
4.5098521
20
-1.7206208
11
4.5098521
21
-1.8419
0
LINE
8
DEFAULT_255_1_234
10
4.5098521
20
-1.8419
11
3.7436243
21
-1.8419
0
LINE
8
DEFAULT_255_1_234
10
3.7436243
20
-1.8419
11
3.7436243
21
-1.7350779
0
LINE
8
DEFAULT_255_1_234
10
3.7436243
20
-1.7350779
11
4.1484239
21
-1.2853005
0
LINE
8
DEFAULT_255_1_234
10
3.8697226
20
-1.0170405
11
3.7211354
21
-1.0170405
0
LINE
8
DEFAULT_255_1_234
10
4.2359698
20
-1.3808782
11
3.922732
21
-1.7206208
0
LINE
8
DEFAULT_255_1_234
10
3.922732
20
-1.7206208
11
4.5098521
21
-1.7206208
0
ARC
8
DEFAULT_255_1_234
10
2.7994072
20
-0.0923473
40
1.8008286
50
318.5132453
51
320.7828378
0
ARC
8
DEFAULT_255_1_234
10
3.3281047
20
-0.5226574
40
1.1191493
50
320.7372736
51
323.9737074
0
ARC
8
DEFAULT_255_1_234
10
3.7200903
20
-0.8066639
40
0.6350923
50
323.8961724
51
328.6421089
0
ARC
8
DEFAULT_255_1_234
10
3.9247498
20
-0.9328969
40
0.3946393
50
328.8299013
51
331.789948
0
ARC
8
DEFAULT_255_1_234
10
4.0244677
20
-0.9843491
40
0.2824501
50
331.4255242
51
352.9364833
0
ARC
8
DEFAULT_255_1_234
10
4.0381177
20
-0.9874024
40
0.2685315
50
353.2248685
51
0.0169286
0
ARC
8
DEFAULT_255_1_234
10
4.0591054
20
-0.985105
40
0.2475536
50
359.4866256
51
15.9339782
0
ARC
8
DEFAULT_255_1_234
10
4.109804
20
-0.9714714
40
0.1950618
50
16.1714718
51
43.5284424
0
ARC
8
DEFAULT_255_1_234
10
4.1175348
20
-0.9637427
40
0.184134
50
43.4415429
51
83.1661404
0
ARC
8
DEFAULT_255_1_234
10
4.1041266
20
-1.0374229
40
0.258926
50
82.160215
51
90.1505798
0
ARC
8
DEFAULT_255_1_234
10
4.1009694
20
-1.0911135
40
0.3126255
50
89.5460705
51
102.5418777
0
ARC
8
DEFAULT_255_1_234
10
4.076678
20
-0.9880335
40
0.2067346
50
102.1739365
51
129.2061916
0
ARC
8
DEFAULT_255_1_234
10
4.0687852
20
-0.9755906
40
0.1921118
50
129.7279328
51
135.7542026
0
ARC
8
DEFAULT_255_1_234
10
4.0809379
20
-0.9852955
40
0.2075944
50
136.175737
51
166.3674722
0
ARC
8
DEFAULT_255_1_234
10
4.1816298
20
-1.0122818
40
0.3118201
50
165.9092917
51
178.8683903
0
ARC
8
DEFAULT_255_1_234
10
4.268116
20
-1.0169821
40
0.3983935
50
178.438168
51
180.0083905
0
ARC
8
DEFAULT_255_1_234
10
4.1279762
20
-1.0130769
40
0.4068601
50
163.2878735
51
180.5581814
0
ARC
8
DEFAULT_255_1_234
10
4.0478023
20
-0.991016
40
0.3237344
50
133.454115
51
162.9470031
0
ARC
8
DEFAULT_255_1_234
10
4.0656565
20
-1.01
40
0.349795
50
100.7869394
51
133.4384016
0
ARC
8
DEFAULT_255_1_234
10
4.1004336
20
-1.1648681
40
0.5084616
50
89.6605301
51
101.3704185
0
ARC
8
DEFAULT_255_1_234
10
4.1070675
20
-1.1587504
40
0.502348
50
78.2171172
51
90.4130393
0
ARC
8
DEFAULT_255_1_234
10
4.1425753
20
-0.9963363
40
0.3361092
50
55.9268222
51
78.4888551
0
ARC
8
DEFAULT_255_1_234
10
4.1622193
20
-0.9624676
40
0.2970617
50
47.9292255
51
55.4054003
0
ARC
8
DEFAULT_255_1_234
10
4.1723754
20
-0.9521498
40
0.2825983
50
4.3347696
51
48.0560701
0
ARC
8
DEFAULT_255_1_234
10
4.0628148
20
-0.9691399
40
0.393225
50
359.925209
51
5.5967654
0
ARC
8
DEFAULT_255_1_234
10
4.1057039
20
-0.9635184
40
0.3503892
50
337.8914096
51
358.9967724
0
ARC
8
DEFAULT_255_1_234
10
3.8343451
20
-0.8588294
40
0.6412172
50
326.9135351
51
338.3505194
0
ARC
8
DEFAULT_255_1_234
10
3.4357755
20
-0.6033716
40
1.1146189
50
319.6472867
51
327.095818
0
ARC
8
DEFAULT_255_1_234
10
3.0524758
20
-0.2872
40
1.6114559
50
317.2586784
51
319.9046139
0
LINE
8
DEFAULT_255_2_778
10
6.9278
20
2.5135333
11
6.9278
21
-2.7781667
0
LINE
8
DEFAULT_255_2_778
10
6.9278
20
5.1593333
11
6.9278
21
10.4510333
0
LINE
8
DEFAULT_255_2_778
10
4.2819667
20
5.1594166
11
9.5736667
21
5.1594166
0
LINE
8
DEFAULT_255_2_778
10
9.5736667
20
5.1594166
11
9.5736667
21
2.5136166
0
LINE
8
DEFAULT_255_2_778
10
9.5736667
20
2.5136166
11
4.2819667
21
2.5136166
0
LINE
8
DEFAULT_255_2_778
10
4.2819667
20
2.5136166
11
4.2819667
21
5.1594166
0
LINE
8
DEFAULT_255_2_778
10
9.5735834
20
3.8365
11
12.2193834
21
3.8365
0
ARC
8
DEFAULT_255_2_778
10
9.1157237
20
3.3613664
40
2.5410831
50
42.6294894
51
45.0393338
0
ARC
8
DEFAULT_255_2_778
10
9.4849999
20
3.7001497
40
2.0399463
50
39.3837383
51
42.6529337
0
ARC
8
DEFAULT_255_2_778
10
9.8211734
20
3.9758439
40
1.6051822
50
35.6129603
51
39.3915227
0
ARC
8
DEFAULT_255_2_778
10
10.1084859
20
4.1809721
40
1.2521586
50
30.8334773
51
35.637721
0
ARC
8
DEFAULT_255_2_778
10
10.3524829
20
4.3261713
40
0.9682271
50
24.8869192
51
30.8561145
0
ARC
8
DEFAULT_255_2_778
10
10.5498932
20
4.4172803
40
0.7508071
50
17.1815927
51
24.9195254
0
ARC
8
DEFAULT_255_2_778
10
10.6976268
20
4.4627032
40
0.5962484
50
7.0374375
51
17.205119
0
ARC
8
DEFAULT_255_2_778
10
10.7694251
20
4.4726766
40
0.5237702
50
0.03506
51
6.9169253
0
ARC
8
DEFAULT_255_2_778
10
10.7095341
20
4.4859779
40
0.5838054
50
324.3221563
51
358.7259363
0
ARC
8
DEFAULT_255_2_778
10
10.0196076
20
4.9429058
40
1.4110771
50
316.3249572
51
325.5898093
0
ARC
8
DEFAULT_255_2_778
10
7.2452115
20
7.5465854
40
5.2158282
50
314.6584323
51
316.6847115
0
ARC
8
DEFAULT_255_2_778
10
13.0645698
20
1.6106066
40
3.096969
50
134.049595
51
139.5870217
0
ARC
8
DEFAULT_255_2_778
10
11.4056739
20
3.026162
40
0.916209
50
139.7334955
51
153.9531515
0
ARC
8
DEFAULT_255_2_778
10
11.060987
20
3.1968636
40
0.5315777
50
154.1698253
51
179.6580464
0
ARC
8
DEFAULT_255_2_778
10
11.070587
20
3.2013288
40
0.54117
50
180.1368536
51
192.2241793
0
ARC
8
DEFAULT_255_2_778
10
11.1876973
20
3.2265607
40
0.6609678
50
192.2123257
51
201.0501677
0
ARC
8
DEFAULT_255_2_778
10
11.3587074
20
3.2919402
40
0.8440492
50
201.0224842
51
207.8619986
0
ARC
8
DEFAULT_255_2_778
10
11.5783
20
3.4074176
40
1.0921535
50
207.8339617
51
213.2230762
0
ARC
8
DEFAULT_255_2_778
10
11.8451741
20
3.5815802
40
1.4108291
50
213.2017242
51
217.5500032
0
ARC
8
DEFAULT_255_2_778
10
12.1383086
20
3.8055727
40
1.7797459
50
217.5156945
51
220.6415501
0
ARC
8
DEFAULT_255_2_778
10
12.4632735
20
4.0844599
40
2.2079751
50
220.6405562
51
223.5038495
0
ARC
8
DEFAULT_255_2_778
10
12.7706422
20
4.3740171
40
2.6302506
50
223.4696562
51
225.0164053
0
ENDSEC
0
EOF