0
SECTION
2
HEADER
9
$MEASUREMENT
70
1
0
ENDSEC
0
SECTION
2
TABLES
0
TABLE
2
LTYPE
0
LTYPE
72
65
70
64
2
CONTINUOUS
3
______
73
0
40
0
0
ENDTAB
0
TABLE
2
LAYER
0
LAYER
2
DEFAULT_255_2_778
70
0
62
255
6
CONTINUOUS
0
LAYER
2
DEFAULT_255_1_234
70
0
62
255
6
CONTINUOUS
0
ENDTAB
0
ENDSEC
0
SECTION
2
ENTITIES
0
LINE
8
DEFAULT_255_2_778
10
2.7780918
20
-1.7872
11
8.8634918
21
-1.7872
0
LINE
8
DEFAULT_255_2_778
10
8.8635
20
-0.4642834
11
8.8635
21
-3.1100834
0
LINE
8
DEFAULT_255_2_778
10
9.9219
20
-0.4642834
11
9.9219
21
-3.1100834
0
LINE
8
DEFAULT_255_2_778
10
16.0072918
20
-1.7872
11
9.9218918
21
-1.7872
0
LINE
8
DEFAULT_255_2_778
10
9.3927
20
-3.1101251
11
9.3927
21
0.8585749
0
LINE
8
DEFAULT_255_1_234
10
4.4810137
20
0.3240433
11
4.4810137
21
-0.851
0
LINE
8
DEFAULT_255_1_234
10
4.4810137
20
-0.851
11
4.3316234
21
-0.851
0
LINE
8
DEFAULT_255_1_234
10
4.3316234
20
-0.851
11
4.3316234
21
0.1393133
0
LINE
8
DEFAULT_255_1_234
10
4.3316234
20
0.1393133
11
4.0320396
21
0.0292785
0
LINE
8
DEFAULT_255_1_234
10
4.0320396
20
0.0292785
11
4.0320396
21
0.1642117
0
LINE
8
DEFAULT_255_1_234
10
4.0320396
20
0.1642117
11
4.4577217
21
0.3240433
0
LINE
8
DEFAULT_255_1_234
10
4.4577217
20
0.3240433
11
4.4810137
21
0.3240433
0
LINE
8
DEFAULT_255_1_234
10
13.7629119
20
-0.7297208
11
13.7629119
21
-0.851
0
LINE
8
DEFAULT_255_1_234
10
13.7629119
20
-0.851
11
12.996684
21
-0.851
0
LINE
8
DEFAULT_255_1_234
10
12.996684
20
-0.851
11
12.996684
21
-0.7441779
0
LINE
8
DEFAULT_255_1_234
10
12.996684
20
-0.7441779
11
13.4014836
21
-0.2944005
0
LINE
8
DEFAULT_255_1_234
10
13.1227823
20
-0.0261405
11
12.9741952
21
-0.0261405
0
LINE
8
DEFAULT_255_1_234
10
13.4890296
20
-0.3899782
11
13.1757918
21
-0.7297208
0
LINE
8
DEFAULT_255_1_234
10
13.1757918
20
-0.7297208
11
13.7629119
21
-0.7297208
0
ARC
8
DEFAULT_255_1_234
10
12.052467
20
0.8985527
40
1.8008286
50
318.5132453
51
320.7828378
0
ARC
8
DEFAULT_255_1_234
10
12.5811644
20
0.4682426
40
1.1191493
50
320.7372736
51
323.9737074
0
ARC
8
DEFAULT_255_1_234
10
12.9731501
20
0.1842361
40
0.6350923
50
323.8961724
51
328.6421089
0
ARC
8
DEFAULT_255_1_234
10
13.1778096
20
0.0580031
40
0.3946393
50
328.8299013
51
331.789948
0
ARC
8
DEFAULT_255_1_234
10
13.2775274
20
0.0065509
40
0.2824501
50
331.4255242
51
352.9364833
0
ARC
8
DEFAULT_255_1_234
10
13.2911775
20
0.0034976
40
0.2685315
50
353.2248685
51
0.0169286
0
ARC
8
DEFAULT_255_1_234
10
13.3121652
20
0.005795
40
0.2475536
50
359.4866256
51
15.9339782
0
ARC
8
DEFAULT_255_1_234
10
13.3628637
20
0.0194286
40
0.1950618
50
16.1714718
51
43.5284424
0
ARC
8
DEFAULT_255_1_234
10
13.3705946
20
0.0271573
40
0.184134
50
43.4415429
51
83.1661404
0
ARC
8
DEFAULT_255_1_234
10
13.3571864
20
-0.0465229
40
0.258926
50
82.160215
51
90.1505798
0
ARC
8
DEFAULT_255_1_234
10
13.3540291
20
-0.1002135
40
0.3126255
50
89.5460705
51
102.5418777
0
ARC
8
DEFAULT_255_1_234
10
13.3297377
20
0.0028665
40
0.2067346
50
102.1739365
51
129.2061916
0
ARC
8
DEFAULT_255_1_234
10
13.3218449
20
0.0153094
40
0.1921118
50
129.7279328
51
135.7542026
0
ARC
8
DEFAULT_255_1_234
10
13.3339977
20
0.0056045
40
0.2075944
50
136.175737
51
166.3674722
0
ARC
8
DEFAULT_255_1_234
10
13.4346896
20
-0.0213818
40
0.3118201
50
165.9092917
51
178.8683903
0
ARC
8
DEFAULT_255_1_234
10
13.5211757
20
-0.0260821
40
0.3983935
50
178.438168
51
180.0083905
0
ARC
8
DEFAULT_255_1_234
10
13.3810359
20
-0.0221769
40
0.4068601
50
163.2878735
51
180.5581814
0
ARC
8
DEFAULT_255_1_234
10
13.3008621
20
-0.000116
40
0.3237344
50
133.454115
51
162.9470031
0
ARC
8
DEFAULT_255_1_234
10
13.3187162
20
-0.0191
40
0.349795
50
100.7869394
51
133.4384016
0
ARC
8
DEFAULT_255_1_234
10
13.3534934
20
-0.1739681
40
0.5084616
50
89.6605301
51
101.3704185
0
ARC
8
DEFAULT_255_1_234
10
13.3601273
20
-0.1678504
40
0.502348
50
78.2171172
51
90.4130393
0
ARC
8
DEFAULT_255_1_234
10
13.3956351
20
-0.0054363
40
0.3361092
50
55.9268222
51
78.4888551
0
ARC
8
DEFAULT_255_1_234
10
13.4152791
20
0.0284324
40
0.2970617
50
47.9292255
51
55.4054003
0
ARC
8
DEFAULT_255_1_234
10
13.4254352
20
0.0387502
40
0.2825983
50
4.3347696
51
48.0560701
0
ARC
8
DEFAULT_255_1_234
10
13.3158745
20
0.0217601
40
0.393225
50
359.925209
51
5.5967654
0
ARC
8
DEFAULT_255_1_234
10
13.3587637
20
0.0273816
40
0.3503892
50
337.8914096
51
358.9967724
0
ARC
8
DEFAULT_255_1_234
10
13.0874049
20
0.1320706
40
0.6412172
50
326.9135351
51
338.3505194
0
ARC
8
DEFAULT_255_1_234
10
12.6888353
20
0.3875284
40
1.1146189
50
319.6472867
51
327.095818
0
ARC
8
DEFAULT_255_1_234
10
12.3055356
20
0.7037
40
1.6114559
50
317.2586784
51
319.9046139
0
LINE
8
DEFAULT_255_1_234
10
6.5982378
20
0.8753169
11
6.5982378
21
0.9965962
0
LINE
8
DEFAULT_255_1_234
10
6.5982378
20
0.9965962
11
6.709879
21
0.9965962
0
LINE
8
DEFAULT_255_1_234
10
6.5195268
20
1.2022087
11
6.3709396
21
1.2022087
0
LINE
8
DEFAULT_255_1_234
10
6.3604983
20
0.6480187
11
6.5098887
21
0.6480187
0
LINE
8
DEFAULT_255_1_234
10
6.709879
20
0.8753169
11
6.5982378
21
0.8753169
0
ARC
8
DEFAULT_255_1_234
10
6.7069656
20
1.3358713
40
0.3392876
50
270.4919872
51
281.8951556
0
ARC
8
DEFAULT_255_1_234
10
6.7310918
20
1.2256702
40
0.2264817
50
281.6691735
51
301.2943132
0
ARC
8
DEFAULT_255_1_234
10
6.7481128
20
1.1945304
40
0.1910381
50
301.7833094
51
311.7545298
0
ARC
8
DEFAULT_255_1_234
10
6.7572704
20
1.1843748
40
0.1773635
50
311.7323931
51
354.2802411
0
ARC
8
DEFAULT_255_1_234
10
6.6846329
20
1.1968722
40
0.2509385
50
353.0937916
51
0.1181479
0
ARC
8
DEFAULT_255_1_234
10
6.6385114
20
1.2016386
40
0.2970898
50
359.1805295
51
15.0453146
0
ARC
8
DEFAULT_255_1_234
10
6.7730951
20
1.2408992
40
0.1569564
50
13.9577229
51
77.6713066
0
ARC
8
DEFAULT_255_1_234
10
6.734448
20
1.1023949
40
0.3006298
50
76.1116566
51
90.7026153
0
ARC
8
DEFAULT_255_1_234
10
6.7285318
20
1.1297545
40
0.2732568
50
89.5324876
51
103.531937
0
ARC
8
DEFAULT_255_1_234
10
6.7084762
20
1.2096884
40
0.1908508
50
103.2931773
51
133.5619022
0
ARC
8
DEFAULT_255_1_234
10
6.7040251
20
1.2156375
40
0.1834746
50
133.8349307
51
173.5344437
0
ARC
8
DEFAULT_255_1_234
10
6.7763294
20
1.2028213
40
0.2568033
50
172.5096846
51
180.1366907
0
ARC
8
DEFAULT_255_1_234
10
6.6812188
20
1.2062622
40
0.3103056
50
155.3484492
51
180.7484736
0
ARC
8
DEFAULT_255_1_234
10
6.6763277
20
1.2033846
40
0.3070957
50
131.5744599
51
154.4798489
0
ARC
8
DEFAULT_255_1_234
10
6.7076424
20
1.171731
40
0.3515643
50
96.9875458
51
131.9690667
0
ARC
8
DEFAULT_255_1_234
10
6.7295904
20
1.0471636
40
0.4779224
50
89.8596053
51
97.7825159
0
ARC
8
DEFAULT_255_1_234
10
6.7343967
20
1.0209616
40
0.5041361
50
78.3655447
51
90.4131539
0
ARC
8
DEFAULT_255_1_234
10
6.7701885
20
1.1868887
40
0.3344039
50
56.6229102
51
78.638727
0
ARC
8
DEFAULT_255_1_234
10
6.7916829
20
1.2244805
40
0.2912001
50
47.0253525
51
56.0854072
0
ARC
8
DEFAULT_255_1_234
10
6.7936609
20
1.2284223
40
0.2869704
50
10.9208013
51
46.7778124
0
ARC
8
DEFAULT_255_1_234
10
6.6572675
20
1.1968857
40
0.426899
50
359.6364486
51
11.6087304
0
ARC
8
DEFAULT_255_1_234
10
6.8407519
20
1.1953752
40
0.243409
50
332.3549906
51
359.7179418
0
ARC
8
DEFAULT_255_1_234
10
6.7757121
20
1.2262142
40
0.3153459
50
325.2333722
51
332.8745602
0
ARC
8
DEFAULT_255_1_234
10
6.7909744
20
1.2155828
40
0.2967456
50
292.9802137
51
325.2392345
0
ARC
8
DEFAULT_255_1_234
10
6.7635118
20
1.2689863
40
0.3566604
50
292.5402179
51
293.6924929
0
ARC
8
DEFAULT_255_1_234
10
6.8027714
20
0.6235091
40
0.3307468
50
57.6435486
51
72.8625112
0
ARC
8
DEFAULT_255_1_234
10
6.8382214
20
0.6809549
40
0.2632492
50
36.7248896
51
57.4697979
0
ARC
8
DEFAULT_255_1_234
10
6.8370847
20
0.682222
40
0.2634081
50
8.0545065
51
36.356114
0
ARC
8
DEFAULT_255_1_234
10
6.7508032
20
0.6667174
40
0.3510261
50
359.8320645
51
8.5869982
0
ARC
8
DEFAULT_255_1_234
10
6.7132808
20
0.6619101
40
0.3885653
50
343.9829931
51
0.5571613
0
ARC
8
DEFAULT_255_1_234
10
6.8019005
20
0.6376438
40
0.2966924
50
311.6359546
51
343.7651759
0
ARC
8
DEFAULT_255_1_234
10
6.7640574
20
0.6803102
40
0.3537231
50
279.7829875
51
311.6255694
0
ARC
8
DEFAULT_255_1_234
10
6.7339351
20
0.824028
40
0.5004971
50
269.7286406
51
280.3856417
0
ARC
8
DEFAULT_255_1_234
10
6.7277423
20
0.8198996
40
0.4963778
50
256.6828919
51
270.4412052
0
ARC
8
DEFAULT_255_1_234
10
6.6938719
20
0.6814394
40
0.3538406
50
229.4223008
51
256.8556159
0
ARC
8
DEFAULT_255_1_234
10
6.6524112
20
0.6347736
40
0.2914296
50
181.818294
51
229.6455059
0
ARC
8
DEFAULT_255_1_234
10
6.7564068
20
0.6478496
40
0.3959084
50
179.9755256
51
183.2323064
0
ARC
8
DEFAULT_255_1_234
10
6.7391814
20
0.6458037
40
0.2293034
50
179.4465117
51
196.2869258
0
ARC
8
DEFAULT_255_1_234
10
6.6904222
20
0.6324651
40
0.1787621
50
196.5661473
51
227.705904
0
ARC
8
DEFAULT_255_1_234
10
6.7068317
20
0.6508155
40
0.2033784
50
227.7652068
51
257.8762805
0
ARC
8
DEFAULT_255_1_234
10
6.7293287
20
0.7451156
40
0.3003081
50
257.4584385
51
270.426602
0
ARC
8
DEFAULT_255_1_234
10
6.7338853
20
0.7740996
40
0.329292
50
269.5962073
51
280.8789248
0
ARC
8
DEFAULT_255_1_234
10
6.7568382
20
0.6594685
40
0.2123908
50
280.6346389
51
299.8595945
0
ARC
8
DEFAULT_255_1_234
10
6.7759289
20
0.6232212
40
0.171457
50
300.3576302
51
314.5517981
0
ARC
8
DEFAULT_255_1_234
10
6.7676349
20
0.6292919
40
0.1816095
50
315.0728369
51
345.0431014
0
ARC
8
DEFAULT_255_1_234
10
6.6753163
20
0.6561841
40
0.2777492
50
344.5986631
51
357.9269593
0
ARC
8
DEFAULT_255_1_234
10
6.5857489
20
0.6623276
40
0.3674917
50
357.4748886
51
0.0231117
0
ARC
8
DEFAULT_255_1_234
10
6.6880599
20
0.6647679
40
0.2651907
50
359.5047933
51
13.4239635
0
ARC
8
DEFAULT_255_1_234
10
6.7747242
20
0.6869478
40
0.1757509
50
12.9498199
51
48.7551375
0
ARC
8
DEFAULT_255_1_234
10
6.7564976
20
0.66204
40
0.2065134
50
49.5088623
51
72.1836453
0
ARC
8
DEFAULT_255_1_234
10
6.7207129
20
0.5558291
40
0.3185836
50
71.9010081
51
84.3554254
0
ARC
8
DEFAULT_255_1_234
10
6.7045761
20
0.4197326
40
0.4556151
50
84.0193428
51
89.333121
0
ENDSEC
0
EOF