0
SECTION
2
HEADER
9
$MEASUREMENT
70
1
0
ENDSEC
0
SECTION
2
TABLES
0
TABLE
2
LTYPE
0
LTYPE
72
65
70
64
2
CONTINUOUS
3
______
73
0
40
0
0
ENDTAB
0
TABLE
2
LAYER
0
LAYER
2
DEFAULT_255_2_778
70
0
62
255
6
CONTINUOUS
0
LAYER
2
DEFAULT_255_1_234
70
0
62
255
6
CONTINUOUS
0
ENDTAB
0
ENDSEC
0
SECTION
2
ENTITIES
0
LINE
8
DEFAULT_255_2_778
10
7.0114501
20
-0.59665
11
11.7739501
21
-0.59665
0
LINE
8
DEFAULT_255_2_778
10
11.7739501
20
-0.59665
11
11.7739501
21
-2.18415
0
LINE
8
DEFAULT_255_2_778
10
11.7739501
20
-2.18415
11
7.0114501
21
-2.18415
0
LINE
8
DEFAULT_255_2_778
10
7.0114501
20
-2.18415
11
7.0114501
21
-0.59665
0
LINE
8
DEFAULT_255_2_778
10
8.5989169
20
-0.59665
11
8.5989169
21
-2.17935
0
LINE
8
DEFAULT_255_2_778
10
9.3927169
20
-0.59665
11
9.3927169
21
-2.18415
0
LINE
8
DEFAULT_255_2_778
10
10.9802169
20
-0.59665
11
10.9802169
21
-2.18415
0
LINE
8
DEFAULT_255_2_778
10
10.1864169
20
-0.59665
11
10.1864169
21
-2.18415
0
LINE
8
DEFAULT_255_2_778
10
7.8052169
20
-0.59665
11
7.8052169
21
-2.18415
0
LINE
8
DEFAULT_255_2_778
10
7.0114169
20
-1.39035
11
2.7781169
21
-1.39035
0
LINE
8
DEFAULT_255_2_778
10
11.7739169
20
-1.39035
11
16.0073169
21
-1.39035
0
LINE
8
DEFAULT_255_2_778
10
11.0336625
20
0.2404927
11
11.8369625
21
0.5939927
0
LINE
8
DEFAULT_255_2_778
10
11.8369625
20
0.5939927
11
11.3492625
21
-0.1360073
0
LINE
8
DEFAULT_255_2_778
10
11.3492625
20
-0.1360073
11
11.0336625
21
0.2404927
0
LINE
8
DEFAULT_255_2_778
10
11.3770251
20
0.2005572
11
7.4083251
21
-3.3747428
0
LINE
8
DEFAULT_255_1_234
10
4.4810137
20
0.7208433
11
4.4810137
21
-0.4542
0
LINE
8
DEFAULT_255_1_234
10
4.4810137
20
-0.4542
11
4.3316234
21
-0.4542
0
LINE
8
DEFAULT_255_1_234
10
4.3316234
20
-0.4542
11
4.3316234
21
0.5361133
0
LINE
8
DEFAULT_255_1_234
10
4.3316234
20
0.5361133
11
4.0320396
21
0.4260785
0
LINE
8
DEFAULT_255_1_234
10
4.0320396
20
0.4260785
11
4.0320396
21
0.5610117
0
LINE
8
DEFAULT_255_1_234
10
4.0320396
20
0.5610117
11
4.4577217
21
0.7208433
0
LINE
8
DEFAULT_255_1_234
10
4.4577217
20
0.7208433
11
4.4810137
21
0.7208433
0
LINE
8
DEFAULT_255_1_234
10
13.7629119
20
-0.3329208
11
13.7629119
21
-0.4542
0
LINE
8
DEFAULT_255_1_234
10
13.7629119
20
-0.4542
11
12.996684
21
-0.4542
0
LINE
8
DEFAULT_255_1_234
10
12.996684
20
-0.4542
11
12.996684
21
-0.3473779
0
LINE
8
DEFAULT_255_1_234
10
12.996684
20
-0.3473779
11
13.4014836
21
0.1023995
0
LINE
8
DEFAULT_255_1_234
10
13.1227823
20
0.3706595
11
12.9741952
21
0.3706595
0
LINE
8
DEFAULT_255_1_234
10
13.4890296
20
0.0068218
11
13.1757918
21
-0.3329208
0
LINE
8
DEFAULT_255_1_234
10
13.1757918
20
-0.3329208
11
13.7629119
21
-0.3329208
0
ARC
8
DEFAULT_255_1_234
10
12.052467
20
1.2953527
40
1.8008286
50
318.5132453
51
320.7828378
0
ARC
8
DEFAULT_255_1_234
10
12.5811644
20
0.8650426
40
1.1191493
50
320.7372736
51
323.9737074
0
ARC
8
DEFAULT_255_1_234
10
12.9731501
20
0.5810361
40
0.6350923
50
323.8961724
51
328.6421089
0
ARC
8
DEFAULT_255_1_234
10
13.1778096
20
0.4548031
40
0.3946393
50
328.8299013
51
331.789948
0
ARC
8
DEFAULT_255_1_234
10
13.2775274
20
0.4033509
40
0.2824501
50
331.4255242
51
352.9364833
0
ARC
8
DEFAULT_255_1_234
10
13.2911775
20
0.4002976
40
0.2685315
50
353.2248685
51
0.0169286
0
ARC
8
DEFAULT_255_1_234
10
13.3121652
20
0.402595
40
0.2475536
50
359.4866256
51
15.9339782
0
ARC
8
DEFAULT_255_1_234
10
13.3628637
20
0.4162286
40
0.1950618
50
16.1714718
51
43.5284424
0
ARC
8
DEFAULT_255_1_234
10
13.3705946
20
0.4239573
40
0.184134
50
43.4415429
51
83.1661404
0
ARC
8
DEFAULT_255_1_234
10
13.3571864
20
0.3502771
40
0.258926
50
82.160215
51
90.1505798
0
ARC
8
DEFAULT_255_1_234
10
13.3540291
20
0.2965865
40
0.3126255
50
89.5460705
51
102.5418777
0
ARC
8
DEFAULT_255_1_234
10
13.3297377
20
0.3996665
40
0.2067346
50
102.1739365
51
129.2061916
0
ARC
8
DEFAULT_255_1_234
10
13.3218449
20
0.4121094
40
0.1921118
50
129.7279328
51
135.7542026
0
ARC
8
DEFAULT_255_1_234
10
13.3339977
20
0.4024045
40
0.2075944
50
136.175737
51
166.3674722
0
ARC
8
DEFAULT_255_1_234
10
13.4346896
20
0.3754182
40
0.3118201
50
165.9092917
51
178.8683903
0
ARC
8
DEFAULT_255_1_234
10
13.5211757
20
0.3707179
40
0.3983935
50
178.438168
51
180.0083905
0
ARC
8
DEFAULT_255_1_234
10
13.3810359
20
0.3746231
40
0.4068601
50
163.2878735
51
180.5581814
0
ARC
8
DEFAULT_255_1_234
10
13.3008621
20
0.396684
40
0.3237344
50
133.454115
51
162.9470031
0
ARC
8
DEFAULT_255_1_234
10
13.3187162
20
0.3777
40
0.349795
50
100.7869394
51
133.4384016
0
ARC
8
DEFAULT_255_1_234
10
13.3534934
20
0.2228319
40
0.5084616
50
89.6605301
51
101.3704185
0
ARC
8
DEFAULT_255_1_234
10
13.3601273
20
0.2289496
40
0.502348
50
78.2171172
51
90.4130393
0
ARC
8
DEFAULT_255_1_234
10
13.3956351
20
0.3913637
40
0.3361092
50
55.9268222
51
78.4888551
0
ARC
8
DEFAULT_255_1_234
10
13.4152791
20
0.4252324
40
0.2970617
50
47.9292255
51
55.4054003
0
ARC
8
DEFAULT_255_1_234
10
13.4254352
20
0.4355502
40
0.2825983
50
4.3347696
51
48.0560701
0
ARC
8
DEFAULT_255_1_234
10
13.3158745
20
0.4185601
40
0.393225
50
359.925209
51
5.5967654
0
ARC
8
DEFAULT_255_1_234
10
13.3587637
20
0.4241816
40
0.3503892
50
337.8914096
51
358.9967724
0
ARC
8
DEFAULT_255_1_234
10
13.0874049
20
0.5288706
40
0.6412172
50
326.9135351
51
338.3505194
0
ARC
8
DEFAULT_255_1_234
10
12.6888353
20
0.7843284
40
1.1146189
50
319.6472867
51
327.095818
0
ARC
8
DEFAULT_255_1_234
10
12.3055356
20
1.1005
40
1.6114559
50
317.2586784
51
319.9046139
0
ENDSEC
0
EOF