0
SECTION
2
HEADER
9
$MEASUREMENT
70
1
0
ENDSEC
0
SECTION
2
TABLES
0
TABLE
2
LTYPE
0
LTYPE
72
65
70
64
2
CONTINUOUS
3
______
73
0
40
0
0
ENDTAB
0
TABLE
2
LAYER
0
LAYER
2
DEFAULT_255_2_778
70
0
62
255
6
CONTINUOUS
0
LAYER
2
DEFAULT_255_1_234
70
0
62
255
6
CONTINUOUS
0
ENDTAB
0
ENDSEC
0
SECTION
2
ENTITIES
0
ARC
8
DEFAULT_255_2_778
10
9.929037
20
-4.362621
40
3.1822232
50
175.4812953
51
180.0788206
0
ARC
8
DEFAULT_255_2_778
10
9.3175314
20
-4.3140296
40
2.56879
50
170.5231447
51
175.4871637
0
ARC
8
DEFAULT_255_2_778
10
8.785587
20
-4.2240471
40
2.0292902
50
164.4787089
51
170.5561874
0
ARC
8
DEFAULT_255_2_778
10
8.3274761
20
-4.0959605
40
1.5536109
50
157.3434752
51
164.5091902
0
ARC
8
DEFAULT_255_2_778
10
7.9519014
20
-3.9375514
40
1.1459999
50
148.1009216
51
157.4190304
0
ARC
8
DEFAULT_255_2_778
10
7.6671749
20
-3.7587202
40
0.8097751
50
135.9820148
51
148.1976895
0
ARC
8
DEFAULT_255_2_778
10
7.4851473
20
-3.5803676
40
0.5549436
50
118.3754525
51
136.1646657
0
ARC
8
DEFAULT_255_2_778
10
7.411179
20
-3.4422996
40
0.3983112
50
90.411711
51
118.4524521
0
ARC
8
DEFAULT_255_2_778
10
7.4039974
20
-3.4505432
40
0.4065674
50
57.5896115
51
89.3912622
0
ARC
8
DEFAULT_255_2_778
10
7.3074267
20
-3.6102136
40
0.59314
50
41.4538633
51
57.9810436
0
ARC
8
DEFAULT_255_2_778
10
7.1081734
20
-3.7896447
40
0.8612685
50
30.1192215
51
41.625009
0
ARC
8
DEFAULT_255_2_778
10
6.8099952
20
-3.9647923
40
1.2070782
50
21.3614256
51
30.2081547
0
ARC
8
DEFAULT_255_2_778
10
6.4147767
20
-4.1209692
40
1.6320338
50
14.2314444
51
21.4137164
0
ARC
8
DEFAULT_255_2_778
10
5.9287979
20
-4.2456493
40
2.13375
50
8.3109219
51
14.2685292
0
ARC
8
DEFAULT_255_2_778
10
5.3692779
20
-4.3287986
40
2.6994132
50
3.4018261
51
8.3406444
0
ARC
8
DEFAULT_255_2_778
10
4.8095521
20
-4.3643938
40
3.2602656
50
359.9542216
51
3.4425863
0
ARC
8
DEFAULT_255_2_778
10
11.2521701
20
-4.3626187
40
3.1823563
50
175.4815265
51
180.0788587
0
ARC
8
DEFAULT_255_2_778
10
10.6407645
20
-4.3140354
40
2.5690235
50
170.5238845
51
175.4874463
0
ARC
8
DEFAULT_255_2_778
10
10.1087473
20
-4.2240497
40
2.0294515
50
164.4798973
51
170.5568708
0
ARC
8
DEFAULT_255_2_778
10
9.6505815
20
-4.0959617
40
1.5537189
50
157.3450917
51
164.5102502
0
ARC
8
DEFAULT_255_2_778
10
9.2749459
20
-3.9375424
40
1.1460478
50
148.1029414
51
157.4205118
0
ARC
8
DEFAULT_255_2_778
10
8.9901629
20
-3.7586893
40
0.8097636
50
135.9842528
51
148.1997538
0
ARC
8
DEFAULT_255_2_778
10
8.8081124
20
-3.580329
40
0.5549101
50
118.3774391
51
136.1668766
0
ARC
8
DEFAULT_255_2_778
10
8.7341295
20
-3.4422459
40
0.3982575
50
90.4118426
51
118.4544168
0
ARC
8
DEFAULT_255_2_778
10
8.7269466
20
-3.4504899
40
0.4065142
50
57.5874248
51
89.3910815
0
ARC
8
DEFAULT_255_2_778
10
8.630361
20
-3.6101734
40
0.5931058
50
41.4516183
51
57.9790287
0
ARC
8
DEFAULT_255_2_778
10
8.4310675
20
-3.7896259
40
0.8612784
50
30.1173955
51
41.6227505
0
ARC
8
DEFAULT_255_2_778
10
8.1328676
20
-3.9647719
40
1.207106
50
21.3598729
51
30.2062711
0
ARC
8
DEFAULT_255_2_778
10
7.7376151
20
-4.1209548
40
1.6320954
50
14.2303778
51
21.4123277
0
ARC
8
DEFAULT_255_2_778
10
7.2515317
20
-4.2456525
40
2.1339172
50
8.3103534
51
14.2674762
0
ARC
8
DEFAULT_255_2_778
10
6.6919399
20
-4.3288
40
2.6996512
50
3.4015561
51
8.3399346
0
ARC
8
DEFAULT_255_2_778
10
6.132444
20
-4.3643875
40
3.2602739
50
359.9541106
51
3.4424664
0
ARC
8
DEFAULT_255_2_778
10
12.5750701
20
-4.3626187
40
3.1823563
50
175.4815265
51
180.0788587
0
ARC
8
DEFAULT_255_2_778
10
11.9636645
20
-4.3140354
40
2.5690235
50
170.5238845
51
175.4874463
0
ARC
8
DEFAULT_255_2_778
10
11.4316473
20
-4.2240497
40
2.0294515
50
164.4798973
51
170.5568708
0
ARC
8
DEFAULT_255_2_778
10
10.9734815
20
-4.0959617
40
1.5537189
50
157.3450917
51
164.5102502
0
ARC
8
DEFAULT_255_2_778
10
10.5978459
20
-3.9375424
40
1.1460478
50
148.1029414
51
157.4205118
0
ARC
8
DEFAULT_255_2_778
10
10.3130629
20
-3.7586893
40
0.8097636
50
135.9842528
51
148.1997538
0
ARC
8
DEFAULT_255_2_778
10
10.1310124
20
-3.580329
40
0.5549101
50
118.3774391
51
136.1668766
0
ARC
8
DEFAULT_255_2_778
10
10.0570295
20
-3.4422459
40
0.3982575
50
90.4118426
51
118.4544168
0
ARC
8
DEFAULT_255_2_778
10
10.0498466
20
-3.4504899
40
0.4065142
50
57.5874248
51
89.3910815
0
ARC
8
DEFAULT_255_2_778
10
9.953261
20
-3.6101734
40
0.5931058
50
41.4516183
51
57.9790287
0
ARC
8
DEFAULT_255_2_778
10
9.7539675
20
-3.7896259
40
0.8612784
50
30.1173955
51
41.6227505
0
ARC
8
DEFAULT_255_2_778
10
9.4557676
20
-3.9647719
40
1.207106
50
21.3598729
51
30.2062711
0
ARC
8
DEFAULT_255_2_778
10
9.0605151
20
-4.1209548
40
1.6320954
50
14.2303778
51
21.4123277
0
ARC
8
DEFAULT_255_2_778
10
8.5744317
20
-4.2456525
40
2.1339172
50
8.3103534
51
14.2674762
0
ARC
8
DEFAULT_255_2_778
10
8.0148399
20
-4.3288
40
2.6996512
50
3.4015561
51
8.3399346
0
ARC
8
DEFAULT_255_2_778
10
7.455344
20
-4.3643875
40
3.2602739
50
359.9541106
51
3.4424664
0
ARC
8
DEFAULT_255_2_778
10
13.8979701
20
-4.3626187
40
3.1823563
50
175.4815265
51
180.0788587
0
ARC
8
DEFAULT_255_2_778
10
13.2865645
20
-4.3140354
40
2.5690235
50
170.5238845
51
175.4874463
0
ARC
8
DEFAULT_255_2_778
10
12.7545473
20
-4.2240497
40
2.0294515
50
164.4798973
51
170.5568708
0
ARC
8
DEFAULT_255_2_778
10
12.2963815
20
-4.0959617
40
1.5537189
50
157.3450917
51
164.5102502
0
ARC
8
DEFAULT_255_2_778
10
11.9207459
20
-3.9375424
40
1.1460478
50
148.1029414
51
157.4205118
0
ARC
8
DEFAULT_255_2_778
10
11.6359629
20
-3.7586893
40
0.8097636
50
135.9842528
51
148.1997538
0
ARC
8
DEFAULT_255_2_778
10
11.4539124
20
-3.580329
40
0.5549101
50
118.3774391
51
136.1668766
0
ARC
8
DEFAULT_255_2_778
10
11.3799295
20
-3.4422459
40
0.3982575
50
90.4118426
51
118.4544168
0
ARC
8
DEFAULT_255_2_778
10
11.3727466
20
-3.4504899
40
0.4065142
50
57.5874248
51
89.3910815
0
ARC
8
DEFAULT_255_2_778
10
11.276161
20
-3.6101734
40
0.5931058
50
41.4516183
51
57.9790287
0
ARC
8
DEFAULT_255_2_778
10
11.0768675
20
-3.7896259
40
0.8612784
50
30.1173955
51
41.6227505
0
ARC
8
DEFAULT_255_2_778
10
10.7786676
20
-3.9647719
40
1.207106
50
21.3598729
51
30.2062711
0
ARC
8
DEFAULT_255_2_778
10
10.3834151
20
-4.1209548
40
1.6320954
50
14.2303778
51
21.4123277
0
ARC
8
DEFAULT_255_2_778
10
9.8973317
20
-4.2456525
40
2.1339172
50
8.3103534
51
14.2674762
0
ARC
8
DEFAULT_255_2_778
10
9.3377399
20
-4.3288
40
2.6996512
50
3.4015561
51
8.3399346
0
ARC
8
DEFAULT_255_2_778
10
8.778244
20
-4.3643875
40
3.2602739
50
359.9541106
51
3.4424664
0
LINE
8
DEFAULT_255_2_778
10
2.7781169
20
-4.3669987
11
6.7468169
21
-4.3669987
0
LINE
8
DEFAULT_255_2_778
10
12.0385169
20
-4.3669987
11
16.0073169
21
-4.3669987
0
LINE
8
DEFAULT_255_1_234
10
4.4810137
20
-2.2556567
11
4.4810137
21
-3.4307
0
LINE
8
DEFAULT_255_1_234
10
4.4810137
20
-3.4307
11
4.3316234
21
-3.4307
0
LINE
8
DEFAULT_255_1_234
10
4.3316234
20
-3.4307
11
4.3316234
21
-2.4403867
0
LINE
8
DEFAULT_255_1_234
10
4.3316234
20
-2.4403867
11
4.0320396
21
-2.5504215
0
LINE
8
DEFAULT_255_1_234
10
4.0320396
20
-2.5504215
11
4.0320396
21
-2.4154883
0
LINE
8
DEFAULT_255_1_234
10
4.0320396
20
-2.4154883
11
4.4577217
21
-2.2556567
0
LINE
8
DEFAULT_255_1_234
10
4.4577217
20
-2.2556567
11
4.4810137
21
-2.2556567
0
LINE
8
DEFAULT_255_1_234
10
13.7629119
20
-3.3094208
11
13.7629119
21
-3.4307
0
LINE
8
DEFAULT_255_1_234
10
13.7629119
20
-3.4307
11
12.996684
21
-3.4307
0
LINE
8
DEFAULT_255_1_234
10
12.996684
20
-3.4307
11
12.996684
21
-3.3238779
0
LINE
8
DEFAULT_255_1_234
10
12.996684
20
-3.3238779
11
13.4014836
21
-2.8741005
0
LINE
8
DEFAULT_255_1_234
10
13.1227823
20
-2.6058405
11
12.9741952
21
-2.6058405
0
LINE
8
DEFAULT_255_1_234
10
13.4890296
20
-2.9696782
11
13.1757918
21
-3.3094208
0
LINE
8
DEFAULT_255_1_234
10
13.1757918
20
-3.3094208
11
13.7629119
21
-3.3094208
0
ARC
8
DEFAULT_255_1_234
10
12.052467
20
-1.6811473
40
1.8008286
50
318.5132453
51
320.7828378
0
ARC
8
DEFAULT_255_1_234
10
12.5811644
20
-2.1114574
40
1.1191493
50
320.7372736
51
323.9737074
0
ARC
8
DEFAULT_255_1_234
10
12.9731501
20
-2.3954639
40
0.6350923
50
323.8961724
51
328.6421089
0
ARC
8
DEFAULT_255_1_234
10
13.1778096
20
-2.5216969
40
0.3946393
50
328.8299013
51
331.789948
0
ARC
8
DEFAULT_255_1_234
10
13.2775274
20
-2.5731491
40
0.2824501
50
331.4255242
51
352.9364833
0
ARC
8
DEFAULT_255_1_234
10
13.2911775
20
-2.5762024
40
0.2685315
50
353.2248685
51
0.0169286
0
ARC
8
DEFAULT_255_1_234
10
13.3121652
20
-2.573905
40
0.2475536
50
359.4866256
51
15.9339782
0
ARC
8
DEFAULT_255_1_234
10
13.3628637
20
-2.5602714
40
0.1950618
50
16.1714718
51
43.5284424
0
ARC
8
DEFAULT_255_1_234
10
13.3705946
20
-2.5525427
40
0.184134
50
43.4415429
51
83.1661404
0
ARC
8
DEFAULT_255_1_234
10
13.3571864
20
-2.6262229
40
0.258926
50
82.160215
51
90.1505798
0
ARC
8
DEFAULT_255_1_234
10
13.3540291
20
-2.6799135
40
0.3126255
50
89.5460705
51
102.5418777
0
ARC
8
DEFAULT_255_1_234
10
13.3297377
20
-2.5768335
40
0.2067346
50
102.1739365
51
129.2061916
0
ARC
8
DEFAULT_255_1_234
10
13.3218449
20
-2.5643906
40
0.1921118
50
129.7279328
51
135.7542026
0
ARC
8
DEFAULT_255_1_234
10
13.3339977
20
-2.5740955
40
0.2075944
50
136.175737
51
166.3674722
0
ARC
8
DEFAULT_255_1_234
10
13.4346896
20
-2.6010818
40
0.3118201
50
165.9092917
51
178.8683903
0
ARC
8
DEFAULT_255_1_234
10
13.5211757
20
-2.6057821
40
0.3983935
50
178.438168
51
180.0083905
0
ARC
8
DEFAULT_255_1_234
10
13.3810359
20
-2.6018769
40
0.4068601
50
163.2878735
51
180.5581814
0
ARC
8
DEFAULT_255_1_234
10
13.3008621
20
-2.579816
40
0.3237344
50
133.454115
51
162.9470031
0
ARC
8
DEFAULT_255_1_234
10
13.3187162
20
-2.5988
40
0.349795
50
100.7869394
51
133.4384016
0
ARC
8
DEFAULT_255_1_234
10
13.3534934
20
-2.7536681
40
0.5084616
50
89.6605301
51
101.3704185
0
ARC
8
DEFAULT_255_1_234
10
13.3601273
20
-2.7475504
40
0.502348
50
78.2171172
51
90.4130393
0
ARC
8
DEFAULT_255_1_234
10
13.3956351
20
-2.5851363
40
0.3361092
50
55.9268222
51
78.4888551
0
ARC
8
DEFAULT_255_1_234
10
13.4152791
20
-2.5512676
40
0.2970617
50
47.9292255
51
55.4054003
0
ARC
8
DEFAULT_255_1_234
10
13.4254352
20
-2.5409498
40
0.2825983
50
4.3347696
51
48.0560701
0
ARC
8
DEFAULT_255_1_234
10
13.3158745
20
-2.5579399
40
0.393225
50
359.925209
51
5.5967654
0
ARC
8
DEFAULT_255_1_234
10
13.3587637
20
-2.5523184
40
0.3503892
50
337.8914096
51
358.9967724
0
ARC
8
DEFAULT_255_1_234
10
13.0874049
20
-2.4476294
40
0.6412172
50
326.9135351
51
338.3505194
0
ARC
8
DEFAULT_255_1_234
10
12.6888353
20
-2.1921716
40
1.1146189
50
319.6472867
51
327.095818
0
ARC
8
DEFAULT_255_1_234
10
12.3055356
20
-1.876
40
1.6114559
50
317.2586784
51
319.9046139
0
ENDSEC
0
EOF