0
SECTION
2
HEADER
9
$MEASUREMENT
70
1
0
ENDSEC
0
SECTION
2
TABLES
0
TABLE
2
LTYPE
0
LTYPE
72
65
70
64
2
CONTINUOUS
3
______
73
0
40
0
0
ENDTAB
0
TABLE
2
LAYER
0
LAYER
2
DEFAULT_255_2_778
70
0
62
255
6
CONTINUOUS
0
LAYER
2
DEFAULT_255_1_234
70
0
62
255
6
CONTINUOUS
0
ENDTAB
0
ENDSEC
0
SECTION
2
ENTITIES
0
LINE
8
DEFAULT_255_2_778
10
8.0697834
20
-1.1258834
11
8.0697834
21
-3.7716834
0
LINE
8
DEFAULT_255_2_778
10
8.0697834
20
-3.7716834
11
10.7155834
21
-2.4487834
0
LINE
8
DEFAULT_255_2_778
10
10.7155834
20
-2.4487834
11
8.0697834
21
-1.1258834
0
LINE
8
DEFAULT_255_2_778
10
2.7781667
20
-2.4488
11
8.0698667
21
-2.4488
0
LINE
8
DEFAULT_255_2_778
10
10.7156667
20
-2.4488
11
16.0073667
21
-2.4488
0
LINE
8
DEFAULT_255_2_778
10
10.7156
20
-1.1258834
11
10.7156
21
-3.7716834
0
LINE
8
DEFAULT_255_1_234
10
4.7230802
20
-1.6448
11
4.5672645
21
-1.6448
0
LINE
8
DEFAULT_255_1_234
10
4.3994011
20
-1.117918
11
4.5439724
21
-1.117918
0
LINE
8
DEFAULT_255_1_234
10
4.5439724
20
-1.117918
11
4.5439724
21
-1.0496482
0
LINE
8
DEFAULT_255_1_234
10
4.1729061
20
-1.0167181
11
4.0235158
21
-1.0167181
0
LINE
8
DEFAULT_255_1_234
10
4.6925596
20
-1.0416165
11
4.6925596
21
-1.441597
0
LINE
8
DEFAULT_255_1_234
10
4.7230802
20
-1.6319492
11
4.7230802
21
-1.6448
0
LINE
8
DEFAULT_255_1_234
10
4.5439724
20
-1.4014383
11
4.5439724
21
-1.2231337
0
LINE
8
DEFAULT_255_1_234
10
4.5439724
20
-1.2231337
11
4.4275122
21
-1.2231337
0
ARC
8
DEFAULT_255_1_234
10
4.6712183
20
-1.5943806
40
0.1155358
50
197.0791116
51
205.8741701
0
ARC
8
DEFAULT_255_1_234
10
4.7950782
20
-1.5551346
40
0.2454626
50
192.2918602
51
197.3448991
0
ARC
8
DEFAULT_255_1_234
10
4.9904231
20
-1.5117337
40
0.4455697
50
189.1576348
51
192.3971359
0
ARC
8
DEFAULT_255_1_234
10
5.2718512
20
-1.4658451
40
0.7307142
50
186.8689952
51
189.1979448
0
ARC
8
DEFAULT_255_1_234
10
4.2889666
20
-1.3111742
40
0.353352
50
294.0080019
51
316.7604136
0
ARC
8
DEFAULT_255_1_234
10
4.301873
20
-1.3293428
40
0.3315331
50
269.5042461
51
293.2479736
0
ARC
8
DEFAULT_255_1_234
10
4.2959215
20
-1.2892509
40
0.3716254
50
255.403374
51
270.4753162
0
ARC
8
DEFAULT_255_1_234
10
4.2729187
20
-1.3785175
40
0.2794431
50
228.6140946
51
255.354999
0
ARC
8
DEFAULT_255_1_234
10
4.239671
20
-1.4103509
40
0.2336109
50
181.8953303
51
229.5703879
0
ARC
8
DEFAULT_255_1_234
10
4.2988216
20
-1.4039292
40
0.2929755
50
179.984097
51
182.7679515
0
ARC
8
DEFAULT_255_1_234
10
4.2905158
20
-1.4004587
40
0.28469
50
161.0341165
51
180.6820968
0
ARC
8
DEFAULT_255_1_234
10
4.2465704
20
-1.3890271
40
0.2394402
50
125.0523775
51
160.2033967
0
ARC
8
DEFAULT_255_1_234
10
4.3127713
20
-1.4793569
40
0.3514152
50
106.2671988
51
125.4298572
0
ARC
8
DEFAULT_255_1_234
10
4.3700169
20
-1.6664158
40
0.5470269
50
95.4857064
51
106.534858
0
ARC
8
DEFAULT_255_1_234
10
4.3973322
20
-1.9163242
40
0.7984089
50
89.8515322
51
95.7224983
0
ARC
8
DEFAULT_255_1_234
10
4.3333918
20
-1.0478241
40
0.2105886
50
359.503704
51
14.3184734
0
ARC
8
DEFAULT_255_1_234
10
4.3908042
20
-1.0328983
40
0.1512684
50
14.2187004
51
45.2025693
0
ARC
8
DEFAULT_255_1_234
10
4.3944238
20
-1.0314749
40
0.1477163
50
45.8098026
51
73.0032427
0
ARC
8
DEFAULT_255_1_234
10
4.3695206
20
-1.1076104
40
0.2278113
50
72.610967
51
85.7232876
0
ARC
8
DEFAULT_255_1_234
10
4.36052
20
-1.1989431
40
0.3195681
50
85.3352114
51
90.0850615
0
ARC
8
DEFAULT_255_1_234
10
4.3581603
20
-1.1398609
40
0.2604924
50
89.5853149
51
103.4592217
0
ARC
8
DEFAULT_255_1_234
10
4.3429206
20
-1.0763403
40
0.1951693
50
103.44851
51
126.5404292
0
ARC
8
DEFAULT_255_1_234
10
4.3190086
20
-1.045757
40
0.1563639
50
126.1729825
51
141.5004088
0
ARC
8
DEFAULT_255_1_234
10
4.2811687
20
-1.0160615
40
0.1082645
50
141.3333588
51
180.3474677
0
ARC
8
DEFAULT_255_1_234
10
4.2137397
20
-1.0177826
40
0.1902269
50
151.6374668
51
179.6793754
0
ARC
8
DEFAULT_255_1_234
10
4.2739639
20
-1.0477666
40
0.2574753
50
142.4988163
51
152.1325379
0
ARC
8
DEFAULT_255_1_234
10
4.3057599
20
-1.0727265
40
0.2978957
50
120.8284787
51
142.4132259
0
ARC
8
DEFAULT_255_1_234
10
4.3473708
20
-1.1378699
40
0.3751664
50
113.9638113
51
121.1869885
0
ARC
8
DEFAULT_255_1_234
10
4.360986
20
-1.1710456
40
0.4110136
50
93.3784663
51
113.8198047
0
ARC
8
DEFAULT_255_1_234
10
4.3686641
20
-1.2475554
40
0.487853
50
89.9745882
51
93.7491274
0
ARC
8
DEFAULT_255_1_234
10
4.3721528
20
-1.2439395
40
0.4842481
50
79.1325877
51
90.3871757
0
ARC
8
DEFAULT_255_1_234
10
4.4046648
20
-1.0814565
40
0.3185522
50
60.1435559
51
79.3654871
0
ARC
8
DEFAULT_255_1_234
10
4.4303337
20
-1.032157
40
0.2630271
50
48.6192091
51
59.646742
0
ARC
8
DEFAULT_255_1_234
10
4.4351075
20
-1.0258309
40
0.2551253
50
9.0349315
51
48.4844544
0
ARC
8
DEFAULT_255_1_234
10
4.3274918
20
-1.0493207
40
0.3651489
50
1.2089744
51
10.0233366
0
ARC
8
DEFAULT_255_1_234
10
5.4561664
20
-1.4440482
40
0.7636108
50
179.8160804
51
185.3206488
0
ARC
8
DEFAULT_255_1_234
10
5.1866146
20
-1.4697845
40
0.4928344
50
185.2474014
51
192.7953707
0
ARC
8
DEFAULT_255_1_234
10
5.0104403
20
-1.5102176
40
0.3120807
50
192.7197759
51
202.9585048
0
ARC
8
DEFAULT_255_1_234
10
4.3206586
20
-1.2704072
40
0.2611453
50
270.0069004
51
300.5035019
0
ARC
8
DEFAULT_255_1_234
10
4.3329194
20
-1.2832073
40
0.2439274
50
299.5482464
51
315.6095048
0
ARC
8
DEFAULT_255_1_234
10
4.3619291
20
-1.3128845
40
0.2024389
50
315.868035
51
334.0596869
0
ARC
8
DEFAULT_255_1_234
10
4.4231651
20
-1.9205057
40
0.6973855
50
89.6428514
51
97.2870891
0
ARC
8
DEFAULT_255_1_234
10
4.3790414
20
-1.5901429
40
0.3640992
50
96.9938028
51
109.7781797
0
ARC
8
DEFAULT_255_1_234
10
4.3125039
20
-1.4120109
40
0.1739759
50
109.0087453
51
135.326626
0
ARC
8
DEFAULT_255_1_234
10
4.2851643
20
-1.3781527
40
0.1308198
50
137.4539381
51
182.1082805
0
ARC
8
DEFAULT_255_1_234
10
4.3225634
20
-1.3846107
40
0.1681384
50
179.4392907
51
195.7200177
0
ARC
8
DEFAULT_255_1_234
10
4.2814062
20
-1.3958574
40
0.1254738
50
195.8684065
51
230.1572205
0
ARC
8
DEFAULT_255_1_234
10
4.3056489
20
-1.3668231
40
0.1632985
50
230.1530708
51
259.7485588
0
ARC
8
DEFAULT_255_1_234
10
4.3195193
20
-1.3014614
40
0.230094
50
259.2463819
51
270.291543
0
LINE
8
DEFAULT_255_1_234
10
13.6022994
20
-1.6448
11
13.2995028
21
-1.2424099
0
LINE
8
DEFAULT_255_1_234
10
13.2995028
20
-1.2424099
11
13.2063347
21
-1.3395939
0
LINE
8
DEFAULT_255_1_234
10
13.2063347
20
-1.3395939
11
13.2063347
21
-1.6448
0
LINE
8
DEFAULT_255_1_234
10
13.2063347
20
-1.6448
11
13.0577475
21
-1.6448
0
LINE
8
DEFAULT_255_1_234
10
13.0577475
20
-1.6448
11
13.0577475
21
-0.411125
0
LINE
8
DEFAULT_255_1_234
10
13.0577475
20
-0.411125
11
13.2063347
21
-0.411125
0
LINE
8
DEFAULT_255_1_234
10
13.2063347
20
-0.411125
11
13.2063347
21
-1.1572735
0
LINE
8
DEFAULT_255_1_234
10
13.2063347
20
-1.1572735
11
13.2858489
21
-1.0616958
0
LINE
8
DEFAULT_255_1_234
10
13.2858489
20
-1.0616958
11
13.5565185
21
-0.7757659
0
LINE
8
DEFAULT_255_1_234
10
13.5565185
20
-0.7757659
11
13.7372326
21
-0.7757659
0
LINE
8
DEFAULT_255_1_234
10
13.7372326
20
-0.7757659
11
13.3990964
21
-1.1388005
0
LINE
8
DEFAULT_255_1_234
10
13.3990964
20
-1.1388005
11
13.7765881
21
-1.6448
0
LINE
8
DEFAULT_255_1_234
10
13.7765881
20
-1.6448
11
13.6022994
21
-1.6448
0
ENDSEC
0
EOF