0
SECTION
2
HEADER
9
$MEASUREMENT
70
1
0
ENDSEC
0
SECTION
2
TABLES
0
TABLE
2
LTYPE
0
LTYPE
72
65
70
64
2
CONTINUOUS
3
______
73
0
40
0
0
ENDTAB
0
TABLE
2
LAYER
0
LAYER
2
DEFAULT_255_2_778
70
0
62
255
6
CONTINUOUS
0
LAYER
2
DEFAULT_255_1_388
70
0
62
255
6
CONTINUOUS
0
ENDTAB
0
ENDSEC
0
SECTION
2
ENTITIES
0
LINE
8
DEFAULT_255_2_778
10
9.3927
20
-0.9802834
11
9.3927
21
-3.6260834
0
LINE
8
DEFAULT_255_2_778
10
6.7468834
20
-0.9802834
11
6.7468834
21
-3.6260834
0
LINE
8
DEFAULT_255_2_778
10
6.7468834
20
-3.6260834
11
9.3926834
21
-2.3031834
0
LINE
8
DEFAULT_255_2_778
10
9.3926834
20
-2.3031834
11
6.7468834
21
-0.9802834
0
LINE
8
DEFAULT_255_2_778
10
6.7468251
20
-2.3032
11
2.7781251
21
-2.3032
0
LINE
8
DEFAULT_255_2_778
10
9.3926834
20
-2.3031834
11
12.0384834
21
-0.9802834
0
LINE
8
DEFAULT_255_2_778
10
12.0384834
20
-0.9802834
11
12.0384834
21
-3.6260834
0
LINE
8
DEFAULT_255_2_778
10
12.0384834
20
-3.6260834
11
9.3926834
21
-2.3031834
0
LINE
8
DEFAULT_255_2_778
10
12.0385251
20
-2.3032
11
16.0072251
21
-2.3032
0
LINE
8
DEFAULT_255_1_388
10
4.7676716
20
-1.3554
11
4.5923801
21
-1.3554
0
LINE
8
DEFAULT_255_1_388
10
4.4035351
20
-0.7626617
11
4.5661767
21
-0.7626617
0
LINE
8
DEFAULT_255_1_388
10
4.5661767
20
-0.7626617
11
4.5661767
21
-0.6858587
0
LINE
8
DEFAULT_255_1_388
10
4.1487299
20
-0.6488126
11
3.9806669
21
-0.6488126
0
LINE
8
DEFAULT_255_1_388
10
4.7333361
20
-0.6768231
11
4.7333361
21
-1.1267982
0
LINE
8
DEFAULT_255_1_388
10
4.7676716
20
-1.340943
11
4.7676716
21
-1.3554
0
LINE
8
DEFAULT_255_1_388
10
4.5661767
20
-1.08162
11
4.5661767
21
-0.8810287
0
LINE
8
DEFAULT_255_1_388
10
4.5661767
20
-0.8810287
11
4.4351599
21
-0.8810287
0
ARC
8
DEFAULT_255_1_388
10
4.709295
20
-1.29869
40
0.1299428
50
197.0784902
51
205.8758668
0
ARC
8
DEFAULT_255_1_388
10
4.8487536
20
-1.2545041
40
0.2762313
50
192.2927663
51
197.3441989
0
ARC
8
DEFAULT_255_1_388
10
5.0683042
20
-1.205724
40
0.5011345
50
189.1573793
51
192.3977084
0
ARC
8
DEFAULT_255_1_388
10
5.3847888
20
-1.1541122
40
0.8217995
50
186.8686098
51
189.1982636
0
ARC
8
DEFAULT_255_1_388
10
4.2792979
20
-0.980074
40
0.3975173
50
294.0079259
51
316.7603918
0
ARC
8
DEFAULT_255_1_388
10
4.2938162
20
-1.0005098
40
0.3729755
50
269.5043226
51
293.2478373
0
ARC
8
DEFAULT_255_1_388
10
4.2871214
20
-0.9554085
40
0.4180772
50
255.4034155
51
270.4753052
0
ARC
8
DEFAULT_255_1_388
10
4.2612427
20
-1.0558348
40
0.3143705
50
228.6141063
51
255.3550831
0
ARC
8
DEFAULT_255_1_388
10
4.2238409
20
-1.091646
40
0.2628114
50
181.8954381
51
229.5703134
0
ARC
8
DEFAULT_255_1_388
10
4.2903345
20
-1.0844176
40
0.329546
50
179.9848815
51
182.7691528
0
ARC
8
DEFAULT_255_1_388
10
4.2810411
20
-1.0805173
40
0.3202753
50
161.0342928
51
180.6822077
0
ARC
8
DEFAULT_255_1_388
10
4.2316026
20
-1.0676578
40
0.2693695
50
125.0525065
51
160.2034058
0
ARC
8
DEFAULT_255_1_388
10
4.3060748
20
-1.1692725
40
0.3953338
50
106.2670809
51
125.4300189
0
ARC
8
DEFAULT_255_1_388
10
4.3704789
20
-1.3797205
40
0.6154041
50
95.4857579
51
106.5348562
0
ARC
8
DEFAULT_255_1_388
10
4.4012077
20
-1.6609007
40
0.8982419
50
89.8515405
51
95.7222579
0
ARC
8
DEFAULT_255_1_388
10
4.3292658
20
-0.6838075
40
0.2369198
50
359.5039339
51
14.3181205
0
ARC
8
DEFAULT_255_1_388
10
4.3938662
20
-0.6670138
40
0.170173
50
14.2184556
51
45.2028524
0
ARC
8
DEFAULT_255_1_388
10
4.3979358
20
-0.6654138
40
0.1661795
50
45.8098216
51
73.0032926
0
ARC
8
DEFAULT_255_1_388
10
4.3699185
20
-0.751074
40
0.2562942
50
72.6112517
51
85.7231489
0
ARC
8
DEFAULT_255_1_388
10
4.3597969
20
-0.8537661
40
0.3594635
50
85.335019
51
90.0855069
0
ARC
8
DEFAULT_255_1_388
10
4.3571402
20
-0.7873528
40
0.2930574
50
89.5854741
51
103.459124
0
ARC
8
DEFAULT_255_1_388
10
4.3399941
20
-0.7158866
40
0.2195632
50
103.448332
51
126.5403399
0
ARC
8
DEFAULT_255_1_388
10
4.3130918
20
-0.6814776
40
0.1759039
50
126.1730306
51
141.5008224
0
ARC
8
DEFAULT_255_1_388
10
4.2705233
20
-0.6480734
40
0.1217955
50
141.3332087
51
180.3477313
0
ARC
8
DEFAULT_255_1_388
10
4.1946656
20
-0.6500096
40
0.214002
50
151.6373605
51
179.6795088
0
ARC
8
DEFAULT_255_1_388
10
4.2623892
20
-0.6837232
40
0.2896224
50
142.4981529
51
152.1330509
0
ARC
8
DEFAULT_255_1_388
10
4.2981896
20
-0.7118219
40
0.3351307
50
120.8284906
51
142.4132156
0
ARC
8
DEFAULT_255_1_388
10
4.3449872
20
-0.7850815
40
0.4220297
50
113.9634885
51
121.1871733
0
ARC
8
DEFAULT_255_1_388
10
4.3603181
20
-0.8224295
40
0.4623867
50
93.3784336
51
113.8197902
0
ARC
8
DEFAULT_255_1_388
10
4.3689563
20
-0.9085451
40
0.5488732
50
89.9745993
51
93.7488475
0
ARC
8
DEFAULT_255_1_388
10
4.3728809
20
-0.9044413
40
0.5447818
50
79.1327128
51
90.3871707
0
ARC
8
DEFAULT_255_1_388
10
4.4094573
20
-0.7216403
40
0.3583662
50
60.1434453
51
79.365517
0
ARC
8
DEFAULT_255_1_388
10
4.4383339
20
-0.6661805
40
0.2959028
50
48.6191018
51
59.6466565
0
ARC
8
DEFAULT_255_1_388
10
4.4437051
20
-0.6590644
40
0.2870136
50
9.0349502
51
48.4845487
0
ARC
8
DEFAULT_255_1_388
10
4.322635
20
-0.6854916
40
0.4107927
50
1.2091359
51
10.0234369
0
ARC
8
DEFAULT_255_1_388
10
5.5923798
20
-1.1295578
40
0.8590481
50
179.8159449
51
185.3205667
0
ARC
8
DEFAULT_255_1_388
10
5.2891643
20
-1.1585055
40
0.5544553
50
185.2475628
51
192.7952551
0
ARC
8
DEFAULT_255_1_388
10
5.0909467
20
-1.2039976
40
0.3510853
50
192.7195981
51
202.9584216
0
ARC
8
DEFAULT_255_1_388
10
4.3149503
20
-0.9342105
40
0.2937869
50
270.006916
51
300.503478
0
ARC
8
DEFAULT_255_1_388
10
4.3287438
20
-0.9486112
40
0.2744162
50
299.5482616
51
315.609538
0
ARC
8
DEFAULT_255_1_388
10
4.3613734
20
-0.9819928
40
0.2277499
50
315.8682065
51
334.0592465
0
ARC
8
DEFAULT_255_1_388
10
4.4302708
20
-1.66561
40
0.7845965
50
89.64297
51
97.2867877
0
ARC
8
DEFAULT_255_1_388
10
4.3806305
20
-1.2939064
40
0.4096042
50
96.9938706
51
109.7783917
0
ARC
8
DEFAULT_255_1_388
10
4.3057768
20
-1.0935149
40
0.1957225
50
109.0087985
51
135.3265591
0
ARC
8
DEFAULT_255_1_388
10
4.2750187
20
-1.0554236
40
0.1471704
50
137.4537784
51
182.1083946
0
ARC
8
DEFAULT_255_1_388
10
4.3170887
20
-1.0626899
40
0.1891498
50
179.4390335
51
195.7201623
0
ARC
8
DEFAULT_255_1_388
10
4.2707922
20
-1.0753415
40
0.1411576
50
195.8683556
51
230.157074
0
ARC
8
DEFAULT_255_1_388
10
4.2980645
20
-1.0426772
40
0.1837102
50
230.1532486
51
259.7486257
0
ARC
8
DEFAULT_255_1_388
10
4.3136687
20
-0.9691528
40
0.258848
50
259.2461118
51
270.2915316
0
LINE
8
DEFAULT_255_1_388
10
13.6322193
20
-1.3554
11
13.2915755
21
-0.9027142
0
LINE
8
DEFAULT_255_1_388
10
13.2915755
20
-0.9027142
11
13.186762
21
-1.0120455
0
LINE
8
DEFAULT_255_1_388
10
13.186762
20
-1.0120455
11
13.186762
21
-1.3554
0
LINE
8
DEFAULT_255_1_388
10
13.186762
20
-1.3554
11
13.0196026
21
-1.3554
0
LINE
8
DEFAULT_255_1_388
10
13.0196026
20
-1.3554
11
13.0196026
21
0.032475
0
LINE
8
DEFAULT_255_1_388
10
13.0196026
20
0.032475
11
13.186762
21
0.032475
0
LINE
8
DEFAULT_255_1_388
10
13.186762
20
0.032475
11
13.186762
21
-0.8069364
0
LINE
8
DEFAULT_255_1_388
10
13.186762
20
-0.8069364
11
13.2762149
21
-0.6994122
0
LINE
8
DEFAULT_255_1_388
10
13.2762149
20
-0.6994122
11
13.5807161
21
-0.3777433
0
LINE
8
DEFAULT_255_1_388
10
13.5807161
20
-0.3777433
11
13.7840181
21
-0.3777433
0
LINE
8
DEFAULT_255_1_388
10
13.7840181
20
-0.3777433
11
13.4036175
21
-0.7861544
0
LINE
8
DEFAULT_255_1_388
10
13.4036175
20
-0.7861544
11
13.8282928
21
-1.3554
0
LINE
8
DEFAULT_255_1_388
10
13.8282928
20
-1.3554
11
13.6322193
21
-1.3554
0
ENDSEC
0
EOF