0
SECTION
2
HEADER
9
$MEASUREMENT
70
1
0
ENDSEC
0
SECTION
2
TABLES
0
TABLE
2
LTYPE
0
LTYPE
72
65
70
64
2
CONTINUOUS
3
______
73
0
40
0
0
ENDTAB
0
TABLE
2
LAYER
0
LAYER
2
DEFAULT_255_2_778
70
0
62
255
6
CONTINUOUS
0
LAYER
2
DEFAULT_255_1_234
70
0
62
255
6
CONTINUOUS
0
ENDTAB
0
ENDSEC
0
SECTION
2
ENTITIES
0
LINE
8
DEFAULT_255_2_778
10
9.1281
20
-1.0596834
11
9.1281
21
-3.7054834
0
LINE
8
DEFAULT_255_2_778
10
9.5911542
20
-1.7211417
11
9.7234542
21
-1.7211417
0
LINE
8
DEFAULT_255_2_778
10
9.7234542
20
-1.7211417
11
9.7234542
21
-3.0440417
0
LINE
8
DEFAULT_255_2_778
10
9.7234542
20
-3.0440417
11
9.5911542
21
-3.0440417
0
LINE
8
DEFAULT_255_2_778
10
9.5911542
20
-3.0440417
11
9.5911542
21
-1.7211417
0
LINE
8
DEFAULT_255_2_778
10
16.0073001
20
-2.3826
11
9.6573001
21
-2.3826
0
LINE
8
DEFAULT_255_2_778
10
2.7781001
20
-2.3826
11
9.1281001
21
-2.3826
0
LINE
8
DEFAULT_255_1_234
10
4.4374265
20
-0.4777724
11
4.4374265
21
-0.8191212
0
LINE
8
DEFAULT_255_1_234
10
4.4374265
20
-0.8191212
11
4.763515
21
-0.8191212
0
LINE
8
DEFAULT_255_1_234
10
4.763515
20
-0.8191212
11
4.763515
21
-0.9596767
0
LINE
8
DEFAULT_255_1_234
10
4.763515
20
-0.9596767
11
4.4374265
21
-0.9596767
0
LINE
8
DEFAULT_255_1_234
10
4.4374265
20
-0.9596767
11
4.4374265
21
-1.3291366
0
LINE
8
DEFAULT_255_1_234
10
4.4374265
20
-1.3291366
11
4.2880361
21
-1.3291366
0
LINE
8
DEFAULT_255_1_234
10
4.2880361
20
-1.3291366
11
4.2880361
21
-0.9596767
0
LINE
8
DEFAULT_255_1_234
10
4.2880361
20
-0.9596767
11
3.9619476
21
-0.9596767
0
LINE
8
DEFAULT_255_1_234
10
3.9619476
20
-0.9596767
11
3.9619476
21
-0.8191212
0
LINE
8
DEFAULT_255_1_234
10
3.9619476
20
-0.8191212
11
4.2880361
21
-0.8191212
0
LINE
8
DEFAULT_255_1_234
10
4.2880361
20
-0.8191212
11
4.2880361
21
-0.4777724
0
LINE
8
DEFAULT_255_1_234
10
4.2880361
20
-0.4777724
11
4.4374265
21
-0.4777724
0
LINE
8
DEFAULT_255_1_234
10
13.6618663
20
-0.8889974
11
13.6618663
21
-1.0102766
0
LINE
8
DEFAULT_255_1_234
10
13.6618663
20
-1.0102766
11
13.2699174
21
-1.0102766
0
LINE
8
DEFAULT_255_1_234
10
13.2699174
20
-1.0102766
11
13.2699174
21
-0.8889974
0
LINE
8
DEFAULT_255_1_234
10
13.2699174
20
-0.8889974
11
13.6618663
21
-0.8889974
0
ENDSEC
0
EOF