0
SECTION
2
HEADER
9
$MEASUREMENT
70
1
0
ENDSEC
0
SECTION
2
TABLES
0
TABLE
2
LTYPE
0
LTYPE
72
65
70
64
2
CONTINUOUS
3
______
73
0
40
0
0
ENDTAB
0
TABLE
2
LAYER
0
LAYER
2
DEFAULT_255_2_778
70
0
62
255
6
CONTINUOUS
0
LAYER
2
DEFAULT_255_1_234
70
0
62
255
6
CONTINUOUS
0
ENDTAB
0
ENDSEC
0
SECTION
2
ENTITIES
0
ARC
8
DEFAULT_255_2_778
10
11.9193365
20
5.1631536
40
2.9235555
50
161.5047612
51
180.0732384
0
ARC
8
DEFAULT_255_2_778
10
11.9001129
20
5.1652465
40
2.9046637
50
104.4095262
51
161.4236227
0
ARC
8
DEFAULT_255_2_778
10
11.9036004
20
5.1346202
40
2.9351975
50
89.949578
51
104.3266884
0
ARC
8
DEFAULT_255_2_778
10
11.9099205
20
5.1462635
40
2.9235555
50
71.5047612
51
90.0732384
0
ARC
8
DEFAULT_255_2_778
10
11.9120134
20
5.1654871
40
2.9046637
50
14.4095262
51
71.4236227
0
ARC
8
DEFAULT_255_2_778
10
11.881387
20
5.1619996
40
2.9351975
50
359.949578
51
14.3266884
0
ARC
8
DEFAULT_255_2_778
10
11.8930303
20
5.1556795
40
2.9235555
50
341.5047612
51
0.0732384
0
ARC
8
DEFAULT_255_2_778
10
11.9122539
20
5.1535866
40
2.9046637
50
284.4095262
51
341.4236227
0
ARC
8
DEFAULT_255_2_778
10
11.9087665
20
5.184213
40
2.9351975
50
269.949578
51
284.3266884
0
ARC
8
DEFAULT_255_2_778
10
11.9024464
20
5.1725697
40
2.9235555
50
251.5047612
51
270.0732384
0
ARC
8
DEFAULT_255_2_778
10
11.9003535
20
5.1533461
40
2.9046637
50
194.4095262
51
251.4236227
0
ARC
8
DEFAULT_255_2_778
10
11.9309798
20
5.1568335
40
2.9351975
50
179.949578
51
194.3266884
0
LINE
8
DEFAULT_255_2_778
10
8.9957834
20
5.1594166
11
8.9957834
21
5.1594166
0
LINE
8
DEFAULT_255_2_778
10
3.9687918
20
5.1594
11
10.0541918
21
5.1594
0
LINE
8
DEFAULT_255_2_778
10
10.0542
20
6.4823166
11
10.0542
21
3.8365166
0
LINE
8
DEFAULT_255_2_778
10
11.9062584
20
13.0969207
11
11.9062584
21
6.7469207
0
LINE
8
DEFAULT_255_2_778
10
11.9062584
20
6.7469207
11
10.0541584
21
5.8209207
0
LINE
8
DEFAULT_255_2_778
10
11.9062584
20
-2.7780793
11
11.9062584
21
3.3073207
0
LINE
8
DEFAULT_255_2_778
10
11.9062584
20
3.3073207
11
10.0541584
21
4.4979207
0
LINE
8
DEFAULT_255_2_778
10
10.6816476
20
3.8113098
11
11.5285476
21
3.5516098
0
LINE
8
DEFAULT_255_2_778
10
11.5285476
20
3.5516098
11
10.9948476
21
4.2586098
0
LINE
8
DEFAULT_255_2_778
10
10.9948476
20
4.2586098
11
10.6816476
21
3.8113098
0
LINE
8
DEFAULT_255_1_234
10
5.6912392
20
6.095
11
5.2856364
21
6.095
0
LINE
8
DEFAULT_255_1_234
10
5.2856364
20
6.095
11
5.2856364
21
7.2644211
0
LINE
8
DEFAULT_255_1_234
10
5.2856364
20
7.2644211
11
5.6679471
21
7.2644211
0
LINE
8
DEFAULT_255_1_234
10
5.6968614
20
6.6419614
11
5.4398458
21
6.6419614
0
LINE
8
DEFAULT_255_1_234
10
5.4398458
20
6.6419614
11
5.4398458
21
6.2210983
0
LINE
8
DEFAULT_255_1_234
10
5.4398458
20
6.2210983
11
5.6944519
21
6.2210983
0
LINE
8
DEFAULT_255_1_234
10
5.4398458
20
7.1375196
11
5.4398458
21
6.7656501
0
LINE
8
DEFAULT_255_1_234
10
5.4398458
20
6.7656501
11
5.6727662
21
6.7656501
0
LINE
8
DEFAULT_255_1_234
10
5.6679471
20
7.1375196
11
5.4398458
21
7.1375196
0
ARC
8
DEFAULT_255_1_234
10
5.671718
20
6.5276901
40
0.7367406
50
82.1257326
51
90.2932599
0
ARC
8
DEFAULT_255_1_234
10
5.7106135
20
6.7995013
40
0.4621653
50
69.9044149
51
82.2857423
0
ARC
8
DEFAULT_255_1_234
10
5.7676813
20
6.9537637
40
0.2976871
50
51.1838526
51
70.0181538
0
ARC
8
DEFAULT_255_1_234
10
5.7931779
20
6.990824
40
0.2528517
50
12.1017251
51
50.4214761
0
ARC
8
DEFAULT_255_1_234
10
5.6547653
20
6.9560676
40
0.3955061
50
359.5251267
51
12.8211707
0
ARC
8
DEFAULT_255_1_234
10
5.8127579
20
6.9491344
40
0.2375281
50
323.4908128
51
0.8817314
0
ARC
8
DEFAULT_255_1_234
10
5.7709266
20
6.981455
40
0.2903817
50
298.6825083
51
323.2756573
0
ARC
8
DEFAULT_255_1_234
10
5.7347629
20
7.0415649
40
0.3604842
50
293.1999386
51
299.1396394
0
ARC
8
DEFAULT_255_1_234
10
5.8020602
20
6.4330126
40
0.2871098
50
54.0011765
51
74.9167975
0
ARC
8
DEFAULT_255_1_234
10
5.8136961
20
6.4527332
40
0.2643248
50
36.3580696
51
53.5291921
0
ARC
8
DEFAULT_255_1_234
10
5.8010203
20
6.4436998
40
0.2798884
50
4.8189881
51
36.3089977
0
ARC
8
DEFAULT_255_1_234
10
5.7231038
20
6.432727
40
0.358478
50
359.9370252
51
5.5204067
0
ARC
8
DEFAULT_255_1_234
10
5.690656
20
6.4286667
40
0.3909429
50
344.7478609
51
0.5373281
0
ARC
8
DEFAULT_255_1_234
10
5.7897531
20
6.4019544
40
0.2883093
50
311.1786488
51
344.6886812
0
ARC
8
DEFAULT_255_1_234
10
5.7605578
20
6.4382987
40
0.3348923
50
286.0418249
51
310.8441291
0
ARC
8
DEFAULT_255_1_234
10
5.709841
20
6.6029807
40
0.5071869
50
274.1042341
51
286.4071509
0
ARC
8
DEFAULT_255_1_234
10
5.6921666
20
6.7913229
40
0.6963234
50
269.9236873
51
274.445647
0
ARC
8
DEFAULT_255_1_234
10
5.6967667
20
6.5573537
40
0.3362634
50
269.6055768
51
281.3740047
0
ARC
8
DEFAULT_255_1_234
10
5.7198305
20
6.4480353
40
0.224546
50
281.1055983
51
302.5132223
0
ARC
8
DEFAULT_255_1_234
10
5.7345204
20
6.4216823
40
0.1944357
50
303.0368945
51
311.8811219
0
ARC
8
DEFAULT_255_1_234
10
5.7416611
20
6.413189
40
0.1833454
50
311.9916004
51
351.7143462
0
ARC
8
DEFAULT_255_1_234
10
5.6599841
20
6.429693
40
0.2665871
50
350.7339597
51
0.2221581
0
ARC
8
DEFAULT_255_1_234
10
5.6492287
20
6.4353467
40
0.2773789
50
359.0456241
51
17.2296242
0
ARC
8
DEFAULT_255_1_234
10
5.7531404
20
6.4662163
40
0.1689915
50
17.6685481
51
78.9940892
0
ARC
8
DEFAULT_255_1_234
10
5.7014568
20
6.2807224
40
0.3612658
50
76.5635957
51
90.6980921
0
LINE
8
DEFAULT_255_1_234
10
5.6970552
20
6.6419613
11
5.6968614
21
6.6419614
0
ARC
8
DEFAULT_255_1_234
10
5.6750228
20
7.0942036
40
0.3285612
50
269.6064736
51
281.4533503
0
ARC
8
DEFAULT_255_1_234
10
5.6973048
20
6.9890688
40
0.2210975
50
281.2041486
51
302.5148063
0
ARC
8
DEFAULT_255_1_234
10
5.7109898
20
6.9644241
40
0.1929674
50
303.021671
51
309.8369575
0
ARC
8
DEFAULT_255_1_234
10
5.7293359
20
6.9438488
40
0.1654181
50
309.5228395
51
356.9509836
0
ARC
8
DEFAULT_255_1_234
10
5.6629942
20
6.9533932
40
0.2322512
50
355.4701227
51
0.0492546
0
ARC
8
DEFAULT_255_1_234
10
5.6351033
20
6.9556094
40
0.2601498
50
359.5558597
51
11.2096359
0
ARC
8
DEFAULT_255_1_234
10
5.7308323
20
6.975423
40
0.1623975
50
10.9182341
51
31.3230275
0
ARC
8
DEFAULT_255_1_234
10
5.7594056
20
6.9913214
40
0.1297302
50
31.8852677
51
52.1412565
0
ARC
8
DEFAULT_255_1_234
10
5.7319789
20
6.952575
40
0.1771663
50
52.8285564
51
71.9850297
0
ARC
8
DEFAULT_255_1_234
10
5.6943965
20
6.8419664
40
0.2939794
50
71.6863486
51
82.8455995
0
ARC
8
DEFAULT_255_1_234
10
5.6704501
20
6.6610149
40
0.476506
50
82.6984714
51
90.1729175
0
ARC
8
DEFAULT_255_1_234
10
5.6682136
20
6.7833623
40
0.3541573
50
89.8708275
51
90.0431131
0
LINE
8
DEFAULT_255_1_234
10
9.460123
20
11.1793663
11
9.6151355
21
11.1793663
0
LINE
8
DEFAULT_255_1_234
10
8.7147777
20
11.3383947
11
8.7147777
21
11.4508391
0
LINE
8
DEFAULT_255_1_234
10
9.6151355
20
11.6018357
11
9.460123
21
11.6018357
0
LINE
8
DEFAULT_255_1_234
10
8.8697902
20
11.4468232
11
8.8697902
21
11.3335757
0
ARC
8
DEFAULT_255_1_234
10
9.0670742
20
11.2390846
40
0.5513052
50
340.1774281
51
353.7814284
0
ARC
8
DEFAULT_255_1_234
10
9.2242095
20
11.1805582
40
0.3836379
50
311.4558989
51
340.4421614
0
ARC
8
DEFAULT_255_1_234
10
9.2208763
20
11.1916528
40
0.3941894
50
282.4333181
51
310.7513653
0
ARC
8
DEFAULT_255_1_234
10
9.1769502
20
11.3731679
40
0.5809175
50
269.9358511
51
282.809604
0
ARC
8
DEFAULT_255_1_234
10
9.1717568
20
11.5189212
40
0.7266847
50
270.0021091
51
270.3581957
0
ARC
8
DEFAULT_255_1_234
10
9.1664985
20
11.2588585
40
0.4666519
50
250.7884749
51
270.6489167
0
ARC
8
DEFAULT_255_1_234
10
9.149682
20
11.1951319
40
0.4009729
50
219.3627325
51
250.0611886
0
ARC
8
DEFAULT_255_1_234
10
9.2326031
20
11.2656042
40
0.5097822
50
193.5479632
51
219.5756669
0
ARC
8
DEFAULT_255_1_234
10
9.4697652
20
11.3271919
40
0.7547848
50
181.1218675
51
193.87563
0
ARC
8
DEFAULT_255_1_234
10
9.6767833
20
11.338258
40
0.9620055
50
179.9918545
51
181.5394234
0
ARC
8
DEFAULT_255_1_234
10
9.4916935
20
11.4545788
40
0.7769248
50
169.5837241
51
180.2757934
0
ARC
8
DEFAULT_255_1_234
10
9.3079873
20
11.4885229
40
0.590109
50
155.0365899
51
169.6003176
0
ARC
8
DEFAULT_255_1_234
10
9.1944337
20
11.5432677
40
0.4640625
50
136.783148
51
155.2472683
0
ARC
8
DEFAULT_255_1_234
10
9.1554814
20
11.5763562
40
0.4130255
50
121.7633186
51
136.428115
0
ARC
8
DEFAULT_255_1_234
10
9.1689776
20
11.5514227
40
0.4413323
50
95.6459699
51
121.5490577
0
ARC
8
DEFAULT_255_1_234
10
9.1847058
20
11.4405949
40
0.55319
50
89.924208
51
96.1377933
0
ARC
8
DEFAULT_255_1_234
10
9.1897491
20
11.4524542
40
0.5413475
50
76.6779277
51
90.4563316
0
ARC
8
DEFAULT_255_1_234
10
9.2291114
20
11.6115114
40
0.3775041
50
47.485847
51
76.9287264
0
ARC
8
DEFAULT_255_1_234
10
9.2144087
20
11.6015159
40
0.3948286
50
16.5424086
51
46.8933463
0
ARC
8
DEFAULT_255_1_234
10
9.0536244
20
11.5486861
40
0.564021
50
5.4072051
51
17.0365086
0
ARC
8
DEFAULT_255_1_234
10
8.9097261
20
11.5255679
40
0.5556559
50
7.8891745
51
15.9239216
0
ARC
8
DEFAULT_255_1_234
10
9.1084274
20
11.5832631
40
0.3487515
50
15.7653144
51
27.9410532
0
ARC
8
DEFAULT_255_1_234
10
9.2188492
20
11.642379
40
0.2235026
50
27.8166557
51
46.4008329
0
ARC
8
DEFAULT_255_1_234
10
9.2238135
20
11.6418082
40
0.2205286
50
47.4371857
51
75.0698205
0
ARC
8
DEFAULT_255_1_234
10
9.1929529
20
11.5343765
40
0.3322915
50
74.7008593
51
87.8124495
0
ARC
8
DEFAULT_255_1_234
10
9.1856217
20
11.4287844
40
0.4380987
50
87.3814673
51
90.0240855
0
ARC
8
DEFAULT_255_1_234
10
9.181776
20
11.5465291
40
0.3203749
50
89.3451631
51
108.5745436
0
ARC
8
DEFAULT_255_1_234
10
9.1680865
20
11.5978908
40
0.2673494
50
109.2998449
51
143.3037509
0
ARC
8
DEFAULT_255_1_234
10
9.2442938
20
11.5392881
40
0.3634757
50
143.0753173
51
163.1916937
0
ARC
8
DEFAULT_255_1_234
10
9.4394666
20
11.4776967
40
0.5681262
50
162.9373603
51
174.6208611
0
ARC
8
DEFAULT_255_1_234
10
9.7020708
20
11.448901
40
0.8322832
50
174.3419979
51
180.1430411
0
ARC
8
DEFAULT_255_1_234
10
9.6089864
20
11.3294698
40
0.7392076
50
179.6817502
51
189.150529
0
ARC
8
DEFAULT_255_1_234
10
9.3589112
20
11.287819
40
0.4856932
50
188.9910863
51
203.5773039
0
ARC
8
DEFAULT_255_1_234
10
9.2509445
20
11.2430211
40
0.3688271
50
203.9077269
51
215.1312379
0
ARC
8
DEFAULT_255_1_234
10
9.1586539
20
11.1714941
40
0.2522457
50
213.9071664
51
263.8849284
0
ARC
8
DEFAULT_255_1_234
10
9.1711868
20
11.2499518
40
0.3316174
50
263.1758525
51
270.1031083
0
ARC
8
DEFAULT_255_1_234
10
9.174396
20
11.3746365
40
0.4563091
50
269.6719807
51
279.0609165
0
ARC
8
DEFAULT_255_1_234
10
9.2010728
20
11.2133907
40
0.2928759
50
278.8750225
51
293.6346586
0
ARC
8
DEFAULT_255_1_234
10
9.2330936
20
11.13819
40
0.2111472
50
293.8553404
51
310.0518804
0
ARC
8
DEFAULT_255_1_234
10
9.233579
20
11.1319516
40
0.2060917
50
311.0646779
51
332.0108348
0
ARC
8
DEFAULT_255_1_234
10
9.1143517
20
11.1976978
40
0.3422352
50
331.6588543
51
343.2878891
0
ARC
8
DEFAULT_255_1_234
10
8.9081032
20
11.2610798
40
0.5580003
50
343.1446044
51
351.010618
0
ARC
8
DEFAULT_255_1_234
10
8.7539678
20
11.2891871
40
0.7146438
50
350.7157277
51
351.1602153
0
LINE
8
DEFAULT_255_1_234
10
9.4837484
20
-1.1758657
11
9.4837484
21
-1.301964
0
LINE
8
DEFAULT_255_1_234
10
9.4837484
20
-1.301964
11
8.9769458
21
-1.301964
0
LINE
8
DEFAULT_255_1_234
10
8.9769458
20
-1.301964
11
8.9769458
21
-1.7164017
0
LINE
8
DEFAULT_255_1_234
10
8.9769458
20
-1.7164017
11
9.5656722
21
-1.7164017
0
LINE
8
DEFAULT_255_1_234
10
9.5656722
20
-1.7164017
11
9.5656722
21
-1.8425
0
LINE
8
DEFAULT_255_1_234
10
9.5656722
20
-1.8425
11
8.8227364
21
-1.8425
0
LINE
8
DEFAULT_255_1_234
10
8.8227364
20
-1.8425
11
8.8227364
21
-0.6730789
0
LINE
8
DEFAULT_255_1_234
10
8.8227364
20
-0.6730789
11
9.5576404
21
-0.6730789
0
LINE
8
DEFAULT_255_1_234
10
9.5576404
20
-0.6730789
11
9.5576404
21
-0.7999804
0
LINE
8
DEFAULT_255_1_234
10
9.5576404
20
-0.7999804
11
8.9769458
21
-0.7999804
0
LINE
8
DEFAULT_255_1_234
10
8.9769458
20
-0.7999804
11
8.9769458
21
-1.1758657
0
LINE
8
DEFAULT_255_1_234
10
8.9769458
20
-1.1758657
11
9.4837484
21
-1.1758657
0
ENDSEC
0
EOF