0
SECTION
2
HEADER
9
$MEASUREMENT
70
1
0
ENDSEC
0
SECTION
2
TABLES
0
TABLE
2
LTYPE
0
LTYPE
72
65
70
64
2
CONTINUOUS
3
______
73
0
40
0
0
ENDTAB
0
TABLE
2
LAYER
0
LAYER
2
DEFAULT_255_2_778
70
0
62
255
6
CONTINUOUS
0
LAYER
2
DEFAULT_255_1_388
70
0
62
255
6
CONTINUOUS
0
ENDTAB
0
ENDSEC
0
SECTION
2
ENTITIES
0
ARC
8
DEFAULT_255_2_778
10
11.9193365
20
5.1631536
40
2.9235555
50
161.5047612
51
180.0732384
0
ARC
8
DEFAULT_255_2_778
10
11.9001129
20
5.1652465
40
2.9046637
50
104.4095262
51
161.4236227
0
ARC
8
DEFAULT_255_2_778
10
11.9036004
20
5.1346202
40
2.9351975
50
89.949578
51
104.3266884
0
ARC
8
DEFAULT_255_2_778
10
11.9099205
20
5.1462635
40
2.9235555
50
71.5047612
51
90.0732384
0
ARC
8
DEFAULT_255_2_778
10
11.9120134
20
5.1654871
40
2.9046637
50
14.4095262
51
71.4236227
0
ARC
8
DEFAULT_255_2_778
10
11.881387
20
5.1619996
40
2.9351975
50
359.949578
51
14.3266884
0
ARC
8
DEFAULT_255_2_778
10
11.8930303
20
5.1556795
40
2.9235555
50
341.5047612
51
0.0732384
0
ARC
8
DEFAULT_255_2_778
10
11.9122539
20
5.1535866
40
2.9046637
50
284.4095262
51
341.4236227
0
ARC
8
DEFAULT_255_2_778
10
11.9087665
20
5.184213
40
2.9351975
50
269.949578
51
284.3266884
0
ARC
8
DEFAULT_255_2_778
10
11.9024464
20
5.1725697
40
2.9235555
50
251.5047612
51
270.0732384
0
ARC
8
DEFAULT_255_2_778
10
11.9003535
20
5.1533461
40
2.9046637
50
194.4095262
51
251.4236227
0
ARC
8
DEFAULT_255_2_778
10
11.9309798
20
5.1568335
40
2.9351975
50
179.949578
51
194.3266884
0
LINE
8
DEFAULT_255_2_778
10
8.9957834
20
5.1594166
11
8.9957834
21
5.1594166
0
LINE
8
DEFAULT_255_2_778
10
3.9687918
20
5.1594
11
10.0541918
21
5.1594
0
LINE
8
DEFAULT_255_2_778
10
10.0542
20
6.4823166
11
10.0542
21
3.8365166
0
LINE
8
DEFAULT_255_2_778
10
11.9062584
20
13.0969207
11
11.9062584
21
6.7469207
0
LINE
8
DEFAULT_255_2_778
10
11.9062584
20
6.7469207
11
10.0541584
21
5.8209207
0
LINE
8
DEFAULT_255_2_778
10
11.9062584
20
-2.7780793
11
11.9062584
21
3.3073207
0
LINE
8
DEFAULT_255_2_778
10
11.9062584
20
3.3073207
11
10.0541584
21
4.4979207
0
LINE
8
DEFAULT_255_2_778
10
10.6816344
20
3.8113098
11
11.5285344
21
3.5516098
0
LINE
8
DEFAULT_255_2_778
10
11.5285344
20
3.5516098
11
10.9948344
21
4.2586098
0
LINE
8
DEFAULT_255_2_778
10
10.9948344
20
4.2586098
11
10.6816344
21
3.8113098
0
LINE
8
DEFAULT_255_1_388
10
5.7213024
20
6.1066
11
5.2650024
21
6.1066
0
LINE
8
DEFAULT_255_1_388
10
5.2650024
20
6.1066
11
5.2650024
21
7.4221898
0
LINE
8
DEFAULT_255_1_388
10
5.2650024
20
7.4221898
11
5.6950991
21
7.4221898
0
LINE
8
DEFAULT_255_1_388
10
5.7276274
20
6.7219274
11
5.4384868
21
6.7219274
0
LINE
8
DEFAULT_255_1_388
10
5.4384868
20
6.7219274
11
5.4384868
21
6.2484596
0
LINE
8
DEFAULT_255_1_388
10
5.4384868
20
6.2484596
11
5.7249167
21
6.2484596
0
LINE
8
DEFAULT_255_1_388
10
5.4384868
20
7.2794267
11
5.4384868
21
6.8610763
0
LINE
8
DEFAULT_255_1_388
10
5.4384868
20
6.8610763
11
5.7005205
21
6.8610763
0
LINE
8
DEFAULT_255_1_388
10
5.6950991
20
7.2794267
11
5.4384868
21
7.2794267
0
ARC
8
DEFAULT_255_1_388
10
5.6993411
20
6.5933824
40
0.8288183
50
82.1256322
51
90.2932506
0
ARC
8
DEFAULT_255_1_388
10
5.7430986
20
6.899159
40
0.5199321
50
69.9044202
51
82.2857574
0
ARC
8
DEFAULT_255_1_388
10
5.8072979
20
7.0726993
40
0.3348993
50
51.1840204
51
70.018125
0
ARC
8
DEFAULT_255_1_388
10
5.8359811
20
7.1143945
40
0.2844579
50
12.1018086
51
50.421322
0
ARC
8
DEFAULT_255_1_388
10
5.6802682
20
7.0752937
40
0.4449429
50
359.5252354
51
12.8212369
0
ARC
8
DEFAULT_255_1_388
10
5.8580112
20
7.0674943
40
0.2672162
50
323.4907456
51
0.8818258
0
ARC
8
DEFAULT_255_1_388
10
5.8109525
20
7.1038523
40
0.3266736
50
298.6824053
51
323.2758285
0
ARC
8
DEFAULT_255_1_388
10
5.7702816
20
7.1714509
40
0.4055105
50
293.1994739
51
299.139634
0
ARC
8
DEFAULT_255_1_388
10
5.8459766
20
6.4868651
40
0.3229926
50
54.0009997
51
74.9168635
0
ARC
8
DEFAULT_255_1_388
10
5.8590693
20
6.5090511
40
0.2973581
50
36.3578854
51
53.5293172
0
ARC
8
DEFAULT_255_1_388
10
5.8448061
20
6.498885
40
0.3148715
50
4.8189348
51
36.3090187
0
ARC
8
DEFAULT_255_1_388
10
5.7571085
20
6.4865383
40
0.4033265
50
359.9373213
51
5.5201284
0
ARC
8
DEFAULT_255_1_388
10
5.7206415
20
6.4819733
40
0.4398126
50
344.7479357
51
0.5372278
0
ARC
8
DEFAULT_255_1_388
10
5.8321314
20
6.4519205
40
0.3243441
50
311.1785587
51
344.6887681
0
ARC
8
DEFAULT_255_1_388
10
5.7992857
20
6.4928084
40
0.3767511
50
286.0417804
51
310.8440924
0
ARC
8
DEFAULT_255_1_388
10
5.7422266
20
6.6780885
40
0.5705957
50
274.1044074
51
286.4070149
0
ARC
8
DEFAULT_255_1_388
10
5.7223482
20
6.8898901
40
0.7832907
50
269.9235077
51
274.4458593
0
ARC
8
DEFAULT_255_1_388
10
5.72752
20
6.6267462
40
0.3782955
50
269.6057074
51
281.3740795
0
ARC
8
DEFAULT_255_1_388
10
5.7534698
20
6.5037569
40
0.2526069
50
281.105298
51
302.5134029
0
ARC
8
DEFAULT_255_1_388
10
5.7700086
20
6.4740944
40
0.2187131
50
303.0365425
51
311.8818034
0
ARC
8
DEFAULT_255_1_388
10
5.7780263
20
6.4645602
40
0.2062624
50
311.9916937
51
351.7143773
0
ARC
8
DEFAULT_255_1_388
10
5.6861288
20
6.4831271
40
0.2999202
50
350.7343295
51
0.2221526
0
ARC
8
DEFAULT_255_1_388
10
5.6740376
20
6.489487
40
0.3120525
50
359.045729
51
17.2295312
0
ARC
8
DEFAULT_255_1_388
10
5.7909406
20
6.5242155
40
0.1901144
50
17.6685208
51
78.9940245
0
ARC
8
DEFAULT_255_1_388
10
5.7327767
20
6.3154011
40
0.4065575
50
76.565218
51
90.7103392
0
LINE
8
DEFAULT_255_1_388
10
5.7277364
20
6.7219274
11
5.7276274
21
6.7219274
0
ARC
8
DEFAULT_255_1_388
10
5.7030593
20
7.2306949
40
0.3696273
50
269.6064514
51
281.4533785
0
ARC
8
DEFAULT_255_1_388
10
5.7281234
20
7.1124283
40
0.2487412
50
281.2044438
51
302.5143998
0
ARC
8
DEFAULT_255_1_388
10
5.7435488
20
7.0846576
40
0.2170405
50
303.0211308
51
309.8378766
0
ARC
8
DEFAULT_255_1_388
10
5.7641605
20
7.0615486
40
0.1860946
50
309.5229446
51
356.9509628
0
ARC
8
DEFAULT_255_1_388
10
5.6895731
20
7.0722831
40
0.2612347
50
355.4699226
51
0.0498632
0
ARC
8
DEFAULT_255_1_388
10
5.6581404
20
7.0747789
40
0.2926762
50
359.5558955
51
11.2092924
0
ARC
8
DEFAULT_255_1_388
10
5.7658372
20
7.0970667
40
0.1827036
50
10.9185717
51
31.322519
0
ARC
8
DEFAULT_255_1_388
10
5.797992
20
7.1149571
40
0.1459418
50
31.8850633
51
52.1415586
0
ARC
8
DEFAULT_255_1_388
10
5.7671349
20
7.0713674
40
0.1993088
50
52.8283418
51
71.9850132
0
ARC
8
DEFAULT_255_1_388
10
5.724851
20
6.9469158
40
0.3307407
50
71.686634
51
82.8453416
0
ARC
8
DEFAULT_255_1_388
10
5.6979157
20
6.7433892
40
0.536039
50
82.6981895
51
90.1730083
0
ARC
8
DEFAULT_255_1_388
10
5.6953989
20
6.8312836
40
0.4481429
50
89.8851568
51
90.0383283
0
LINE
8
DEFAULT_255_1_388
10
9.471632
20
11.2373468
11
9.6460199
21
11.2373468
0
LINE
8
DEFAULT_255_1_388
10
8.6331242
20
11.4162525
11
8.6331242
21
11.5427516
0
LINE
8
DEFAULT_255_1_388
10
9.6460199
20
11.7126217
11
9.471632
21
11.7126217
0
LINE
8
DEFAULT_255_1_388
10
8.8075121
20
11.5382337
11
8.8075121
21
11.4108312
0
ARC
8
DEFAULT_255_1_388
10
9.0294433
20
11.3045329
40
0.6202263
50
340.1774904
51
353.7812217
0
ARC
8
DEFAULT_255_1_388
10
9.2062286
20
11.2386893
40
0.4315926
50
311.4560052
51
340.4420756
0
ARC
8
DEFAULT_255_1_388
10
9.2024826
20
11.2511665
40
0.4434573
50
282.4332229
51
310.7514507
0
ARC
8
DEFAULT_255_1_388
10
9.1530644
20
11.4553703
40
0.6535262
50
269.9358869
51
282.8096729
0
ARC
8
DEFAULT_255_1_388
10
9.1472583
20
11.6066329
40
0.8048043
50
269.9995752
51
270.3612856
0
ARC
8
DEFAULT_255_1_388
10
9.1413073
20
11.3267781
40
0.5249831
50
250.7885263
51
270.6488451
0
ARC
8
DEFAULT_255_1_388
10
9.1223898
20
11.2550853
40
0.4510942
50
219.3628377
51
250.0611024
0
ARC
8
DEFAULT_255_1_388
10
9.2156772
20
11.3343653
40
0.5735046
50
193.5480293
51
219.5755675
0
ARC
8
DEFAULT_255_1_388
10
9.4824981
20
11.403652
40
0.849146
50
181.1220183
51
193.8754971
0
ARC
8
DEFAULT_255_1_388
10
9.7148214
20
11.4160914
40
1.0816971
50
179.9914644
51
181.5398227
0
ARC
8
DEFAULT_255_1_388
10
9.5071525
20
11.5469586
40
0.8740384
50
169.5837606
51
180.275782
0
ARC
8
DEFAULT_255_1_388
10
9.3004873
20
11.5851439
40
0.6638751
50
155.0367033
51
169.6002779
0
ARC
8
DEFAULT_255_1_388
10
9.1727331
20
11.6467336
40
0.5220662
50
136.7831557
51
155.2472983
0
ARC
8
DEFAULT_255_1_388
10
9.1289122
20
11.6839577
40
0.4646502
50
121.7633063
51
136.4281161
0
ARC
8
DEFAULT_255_1_388
10
9.1440962
20
11.6559049
40
0.4964979
50
95.6460018
51
121.5489589
0
ARC
8
DEFAULT_255_1_388
10
9.1617936
20
11.5311704
40
0.6223912
50
89.9245727
51
96.1375919
0
ARC
8
DEFAULT_255_1_388
10
9.1674641
20
11.5445721
40
0.6090084
50
76.6779212
51
90.456405
0
ARC
8
DEFAULT_255_1_388
10
9.2117454
20
11.723506
40
0.42469
50
47.4858803
51
76.9287069
0
ARC
8
DEFAULT_255_1_388
10
9.1952068
20
11.7122623
40
0.4441778
50
16.5424081
51
46.8934505
0
ARC
8
DEFAULT_255_1_388
10
9.0143118
20
11.6528265
40
0.6345318
50
5.4072971
51
17.0363711
0
ARC
8
DEFAULT_255_1_388
10
8.8524843
20
11.6268304
40
0.6250632
50
7.8888693
51
15.9242022
0
ARC
8
DEFAULT_255_1_388
10
9.0759828
20
11.6917309
40
0.3923364
50
15.7650676
51
27.9410069
0
ARC
8
DEFAULT_255_1_388
10
9.2001997
20
11.7582317
40
0.2514401
50
27.8167196
51
46.4007942
0
ARC
8
DEFAULT_255_1_388
10
9.2057839
20
11.7575882
40
0.2480958
50
47.4372362
51
75.0695672
0
ARC
8
DEFAULT_255_1_388
10
9.1710675
20
11.6367277
40
0.3738281
50
74.7009379
51
87.8124314
0
ARC
8
DEFAULT_255_1_388
10
9.1628292
20
11.5183659
40
0.4924321
50
87.3802571
51
90.0251599
0
ARC
8
DEFAULT_255_1_388
10
9.1584939
20
11.6503997
40
0.3604218
50
89.3451886
51
108.5744412
0
ARC
8
DEFAULT_255_1_388
10
9.1430931
20
11.7081836
40
0.3007661
50
109.2998307
51
143.3037387
0
ARC
8
DEFAULT_255_1_388
10
9.2288221
20
11.6422584
40
0.4089031
50
143.075267
51
163.1918576
0
ARC
8
DEFAULT_255_1_388
10
9.4484055
20
11.5729652
40
0.6391492
50
162.9375929
51
174.6208776
0
ARC
8
DEFAULT_255_1_388
10
9.7438437
20
11.5405711
40
0.9363344
50
174.342123
51
180.1430283
0
ARC
8
DEFAULT_255_1_388
10
9.6390978
20
11.4062117
40
0.8315986
50
179.6817261
51
189.150555
0
ARC
8
DEFAULT_255_1_388
10
9.3577727
20
11.3593559
40
0.5464044
50
188.9911061
51
203.5772363
0
ARC
8
DEFAULT_255_1_388
10
9.2363019
20
11.3089539
40
0.4149206
50
203.9075402
51
215.1312435
0
ARC
8
DEFAULT_255_1_388
10
9.1324817
20
11.2284907
40
0.2837747
50
213.9071511
51
263.8848919
0
ARC
8
DEFAULT_255_1_388
10
9.146581
20
11.3167519
40
0.3730641
50
263.1757928
51
270.1031044
0
ARC
8
DEFAULT_255_1_388
10
9.150189
20
11.4570511
40
0.5133712
50
269.6722503
51
279.0606936
0
ARC
8
DEFAULT_255_1_388
10
9.1802045
20
11.275615
40
0.3294739
50
278.8749101
51
293.6349581
0
ARC
8
DEFAULT_255_1_388
10
9.2162249
20
11.1910251
40
0.2375405
50
293.8553806
51
310.0518171
0
ARC
8
DEFAULT_255_1_388
10
9.2167758
20
11.1840021
40
0.2318463
50
311.0644687
51
332.0111037
0
ARC
8
DEFAULT_255_1_388
10
9.0826431
20
11.2579702
40
0.3850112
50
331.6586806
51
343.2877423
0
ARC
8
DEFAULT_255_1_388
10
8.8505896
20
11.3292806
40
0.6277712
50
343.1446576
51
351.0103568
0
ARC
8
DEFAULT_255_1_388
10
8.687322
20
11.3592873
40
0.7937327
50
350.71248
51
351.1626997
0
LINE
8
DEFAULT_255_1_388
10
9.6307359
20
-1.0809415
11
9.6307359
21
-1.2228011
0
LINE
8
DEFAULT_255_1_388
10
9.6307359
20
-1.2228011
11
9.0605868
21
-1.2228011
0
LINE
8
DEFAULT_255_1_388
10
9.0605868
20
-1.2228011
11
9.0605868
21
-1.6890404
0
LINE
8
DEFAULT_255_1_388
10
9.0605868
20
-1.6890404
11
9.7228995
21
-1.6890404
0
LINE
8
DEFAULT_255_1_388
10
9.7228995
20
-1.6890404
11
9.7228995
21
-1.8309
0
LINE
8
DEFAULT_255_1_388
10
9.7228995
20
-1.8309
11
8.8871024
21
-1.8309
0
LINE
8
DEFAULT_255_1_388
10
8.8871024
20
-1.8309
11
8.8871024
21
-0.5153102
0
LINE
8
DEFAULT_255_1_388
10
8.8871024
20
-0.5153102
11
9.7138639
21
-0.5153102
0
LINE
8
DEFAULT_255_1_388
10
9.7138639
20
-0.5153102
11
9.7138639
21
-0.6580733
0
LINE
8
DEFAULT_255_1_388
10
9.7138639
20
-0.6580733
11
9.0605868
21
-0.6580733
0
LINE
8
DEFAULT_255_1_388
10
9.0605868
20
-0.6580733
11
9.0605868
21
-1.0809415
0
LINE
8
DEFAULT_255_1_388
10
9.0605868
20
-1.0809415
11
9.6307359
21
-1.0809415
0
ENDSEC
0
EOF