0
SECTION
2
HEADER
9
$MEASUREMENT
70
1
0
ENDSEC
0
SECTION
2
TABLES
0
TABLE
2
LTYPE
0
LTYPE
72
65
70
64
2
CONTINUOUS
3
______
73
0
40
0
0
ENDTAB
0
TABLE
2
LAYER
0
LAYER
2
DEFAULT_255_2_778
70
0
62
255
6
CONTINUOUS
0
LAYER
2
DEFAULT_255_1_234
70
0
62
255
6
CONTINUOUS
0
ENDTAB
0
ENDSEC
0
SECTION
2
ENTITIES
0
ARC
8
DEFAULT_255_2_778
10
9.9350365
20
5.1631536
40
2.9235555
50
161.5047612
51
180.0732384
0
ARC
8
DEFAULT_255_2_778
10
9.9158129
20
5.1652465
40
2.9046637
50
104.4095262
51
161.4236227
0
ARC
8
DEFAULT_255_2_778
10
9.9193004
20
5.1346202
40
2.9351975
50
89.949578
51
104.3266884
0
ARC
8
DEFAULT_255_2_778
10
9.9256205
20
5.1462635
40
2.9235555
50
71.5047612
51
90.0732384
0
ARC
8
DEFAULT_255_2_778
10
9.9277134
20
5.1654871
40
2.9046637
50
14.4095262
51
71.4236227
0
ARC
8
DEFAULT_255_2_778
10
9.897087
20
5.1619996
40
2.9351975
50
359.949578
51
14.3266884
0
ARC
8
DEFAULT_255_2_778
10
9.9087303
20
5.1556795
40
2.9235555
50
341.5047612
51
0.0732384
0
ARC
8
DEFAULT_255_2_778
10
9.9279539
20
5.1535866
40
2.9046637
50
284.4095262
51
341.4236227
0
ARC
8
DEFAULT_255_2_778
10
9.9244665
20
5.184213
40
2.9351975
50
269.949578
51
284.3266884
0
ARC
8
DEFAULT_255_2_778
10
9.9181464
20
5.1725697
40
2.9235555
50
251.5047612
51
270.0732384
0
ARC
8
DEFAULT_255_2_778
10
9.9160535
20
5.1533461
40
2.9046637
50
194.4095262
51
251.4236227
0
ARC
8
DEFAULT_255_2_778
10
9.9466798
20
5.1568335
40
2.9351975
50
179.949578
51
194.3266884
0
LINE
8
DEFAULT_255_2_778
10
7.0114834
20
5.1594166
11
7.0114834
21
5.1594166
0
LINE
8
DEFAULT_255_2_778
10
9.6573
20
6.2177333
11
9.6573
21
4.1010333
0
LINE
8
DEFAULT_255_2_778
10
9.9219
20
6.7469
11
9.9219
21
3.5719
0
LINE
8
DEFAULT_255_2_778
10
9.9218417
20
6.2176832
11
11.2447417
21
6.2176832
0
LINE
8
DEFAULT_255_2_778
10
11.2447417
20
6.2176832
11
11.2447417
21
13.0968832
0
LINE
8
DEFAULT_255_2_778
10
9.9218417
20
4.1010832
11
11.2447417
21
4.1010832
0
LINE
8
DEFAULT_255_2_778
10
11.2447417
20
4.1010832
11
11.2447417
21
-2.7781168
0
LINE
8
DEFAULT_255_2_778
10
9.6573001
20
5.1594
11
3.3073001
21
5.1594
0
LINE
8
DEFAULT_255_2_778
10
8.069825
20
4.8946833
11
8.863525
21
5.1592833
0
LINE
8
DEFAULT_255_2_778
10
8.863525
20
5.1592833
11
8.069825
21
5.4238833
0
LINE
8
DEFAULT_255_2_778
10
8.069825
20
5.4238833
11
8.069825
21
4.8946833
0
LINE
8
DEFAULT_255_1_234
10
5.4396482
20
6.677301
11
5.4396482
21
6.2484062
0
LINE
8
DEFAULT_255_1_234
10
4.5384872
20
6.6234884
11
4.5384872
21
6.7254915
0
LINE
8
DEFAULT_255_1_234
10
5.4396482
20
6.9214659
11
5.2854389
21
6.9214659
0
LINE
8
DEFAULT_255_1_234
10
4.6934998
20
6.7295073
11
4.6934998
21
6.6339296
0
LINE
8
DEFAULT_255_1_234
10
5.286242
20
6.2893681
11
5.286242
21
6.5520059
0
LINE
8
DEFAULT_255_1_234
10
5.286242
20
6.5520059
11
5.0155725
21
6.5520059
0
LINE
8
DEFAULT_255_1_234
10
5.0155725
20
6.5520059
11
5.0155725
21
6.677301
0
LINE
8
DEFAULT_255_1_234
10
5.0155725
20
6.677301
11
5.4396482
21
6.677301
0
ARC
8
DEFAULT_255_1_234
10
5.1564989
20
6.4477396
40
0.3462765
50
295.8437914
51
324.8549609
0
ARC
8
DEFAULT_255_1_234
10
5.1148956
20
6.5230567
40
0.4322211
50
291.5695085
51
296.4549398
0
ARC
8
DEFAULT_255_1_234
10
5.0638207
20
6.6595275
40
0.5779178
50
278.6622409
51
291.3045483
0
ARC
8
DEFAULT_255_1_234
10
5.0298699
20
6.8743408
40
0.7953952
50
270.020006
51
278.7494541
0
ARC
8
DEFAULT_255_1_234
10
5.0260623
20
7.0060036
40
0.927067
50
269.9969998
51
270.2524872
0
ARC
8
DEFAULT_255_1_234
10
5.0222336
20
6.5976589
40
0.5187361
50
253.5786322
51
270.4175299
0
ARC
8
DEFAULT_255_1_234
10
5.0048992
20
6.5305236
40
0.4494451
50
238.8203306
51
253.2788235
0
ARC
8
DEFAULT_255_1_234
10
5.0029365
20
6.5254231
40
0.4440665
50
206.7883783
51
238.6962764
0
ARC
8
DEFAULT_255_1_234
10
5.0803275
20
6.5718405
40
0.5341121
50
206.1129412
51
207.4916643
0
ARC
8
DEFAULT_255_1_234
10
5.140019
20
6.5972488
40
0.5989041
50
188.6921119
51
205.7821245
0
ARC
8
DEFAULT_255_1_234
10
5.3256552
20
6.628823
40
0.7871862
50
180.3882829
51
188.9219216
0
ARC
8
DEFAULT_255_1_234
10
5.4484366
20
6.7311464
40
0.909967
50
170.2024264
51
180.3560651
0
ARC
8
DEFAULT_255_1_234
10
5.1320884
20
6.7877237
40
0.5886083
50
154.2857445
51
170.3893044
0
ARC
8
DEFAULT_255_1_234
10
5.0039087
20
6.846395
40
0.4476743
50
139.8401567
51
153.9332699
0
ARC
8
DEFAULT_255_1_234
10
4.9679823
20
6.8751577
40
0.4016697
50
98.4190291
51
139.6707122
0
ARC
8
DEFAULT_255_1_234
10
5.0059341
20
6.6906328
40
0.5898566
50
89.7659205
51
99.4415478
0
ARC
8
DEFAULT_255_1_234
10
5.012459
20
6.6971844
40
0.5833147
50
78.0551672
51
90.4042112
0
ARC
8
DEFAULT_255_1_234
10
5.05291
20
6.8790644
40
0.3970055
50
54.6380464
51
78.3339173
0
ARC
8
DEFAULT_255_1_234
10
5.0719156
20
6.9110795
40
0.3599102
50
50.031736
51
54.1558201
0
ARC
8
DEFAULT_255_1_234
10
5.0611944
20
6.9014766
40
0.3741624
50
18.1092409
51
49.7180913
0
ARC
8
DEFAULT_255_1_234
10
4.9155144
20
6.8481089
40
0.5292424
50
7.9672797
51
18.6984571
0
ARC
8
DEFAULT_255_1_234
10
4.9305622
20
6.8604504
40
0.3600838
50
9.7557294
51
27.3215714
0
ARC
8
DEFAULT_255_1_234
10
5.0433094
20
6.9167912
40
0.2340608
50
27.7361077
51
84.5257964
0
ARC
8
DEFAULT_255_1_234
10
5.0105481
20
6.752464
40
0.4011215
50
82.106034
51
90.2001166
0
ARC
8
DEFAULT_255_1_234
10
5.0055698
20
6.8032215
40
0.3503799
50
89.4150119
51
105.5823402
0
ARC
8
DEFAULT_255_1_234
10
4.9798696
20
6.8967867
40
0.2533503
50
105.6678618
51
144.2648758
0
ARC
8
DEFAULT_255_1_234
10
5.0691951
20
6.8332289
40
0.3629787
50
144.3561283
51
162.8564086
0
ARC
8
DEFAULT_255_1_234
10
5.277586
20
6.7663017
40
0.5818441
50
162.6076014
51
173.6780284
0
ARC
8
DEFAULT_255_1_234
10
5.5837004
20
6.729089
40
0.8902007
50
173.4670142
51
179.9730753
0
ARC
8
DEFAULT_255_1_234
10
5.3928675
20
6.629726
40
0.6993804
50
179.6556203
51
190.0080463
0
ARC
8
DEFAULT_255_1_234
10
5.1612504
20
6.5872375
40
0.4639066
50
189.8116607
51
206.6796816
0
ARC
8
DEFAULT_255_1_234
10
5.0767656
20
6.5478503
40
0.3707421
50
207.1031645
51
217.7074368
0
ARC
8
DEFAULT_255_1_234
10
5.0133345
20
6.4926559
40
0.2868417
50
216.7345547
51
265.6812148
0
ARC
8
DEFAULT_255_1_234
10
5.0264136
20
6.5830855
40
0.3780509
50
264.7366618
51
270.0611241
0
ARC
8
DEFAULT_255_1_234
10
5.0287399
20
6.8671111
40
0.662079
50
269.8335834
51
276.0539546
0
ARC
8
DEFAULT_255_1_234
10
5.0494404
20
6.676956
40
0.4708016
50
275.9894168
51
284.4615085
0
ARC
8
DEFAULT_255_1_234
10
5.0692411
20
6.5936663
40
0.3852094
50
284.7034461
51
286.4953897
0
ARC
8
DEFAULT_255_1_234
10
5.1099424
20
6.4625965
40
0.2479842
50
286.0770838
51
304.2625829
0
ARC
8
DEFAULT_255_1_234
10
5.1232838
20
6.4407594
40
0.2224291
50
304.5891602
51
317.1073298
0
LINE
8
DEFAULT_255_1_234
10
8.4130154
20
10.8083
11
8.0893364
21
10.8083
0
LINE
8
DEFAULT_255_1_234
10
8.0893364
20
10.8083
11
8.0893364
21
11.9777211
0
LINE
8
DEFAULT_255_1_234
10
8.0893364
20
11.9777211
11
8.4194408
21
11.9777211
0
LINE
8
DEFAULT_255_1_234
10
8.9350784
20
11.4323661
11
8.9350784
21
11.3576709
0
LINE
8
DEFAULT_255_1_234
10
8.4234567
20
11.8508196
11
8.2435458
21
11.8508196
0
LINE
8
DEFAULT_255_1_234
10
8.2435458
20
11.8508196
11
8.2435458
21
10.9343983
0
LINE
8
DEFAULT_255_1_234
10
8.2435458
20
10.9343983
11
8.4057869
21
10.9343983
0
LINE
8
DEFAULT_255_1_234
10
8.7824754
20
11.3608836
11
8.7824754
21
11.4291534
0
ARC
8
DEFAULT_255_1_234
10
8.4233351
20
11.3911894
40
0.5865446
50
75.4101064
51
90.3804066
0
ARC
8
DEFAULT_255_1_234
10
8.4462864
20
11.4868492
40
0.4881916
50
60.145586
51
75.1888407
0
ARC
8
DEFAULT_255_1_234
10
8.462164
20
11.5145199
40
0.4562893
50
26.5253612
51
60.1450928
0
ARC
8
DEFAULT_255_1_234
10
8.3501389
20
11.4551158
40
0.5830602
50
7.4030428
51
26.8320788
0
ARC
8
DEFAULT_255_1_234
10
8.1907146
20
11.4302804
40
0.7443669
50
0.1605367
51
7.7176192
0
ARC
8
DEFAULT_255_1_234
10
8.207105
20
11.3538434
40
0.7279835
50
348.7289388
51
0.3012466
0
ARC
8
DEFAULT_255_1_234
10
8.3727481
20
11.3209386
40
0.559104
50
333.0706509
51
348.7181832
0
ARC
8
DEFAULT_255_1_234
10
8.4694238
20
11.2684319
40
0.4491417
50
299.2531685
51
333.4571258
0
ARC
8
DEFAULT_255_1_234
10
8.4333378
20
11.3369828
40
0.5265881
50
278.107187
51
299.0339503
0
ARC
8
DEFAULT_255_1_234
10
8.4077457
20
11.4877216
40
0.679442
50
270.4443897
51
278.4511052
0
ARC
8
DEFAULT_255_1_234
10
8.4098287
20
11.3948213
40
0.4604407
50
269.4970433
51
284.0205042
0
ARC
8
DEFAULT_255_1_234
10
8.4453588
20
11.2582978
40
0.3193797
50
283.7700273
51
318.1555492
0
ARC
8
DEFAULT_255_1_234
10
8.4116346
20
11.2835367
40
0.3613588
50
318.7415601
51
343.6873628
0
ARC
8
DEFAULT_255_1_234
10
8.2312369
20
11.3398832
40
0.5503313
50
343.3325091
51
355.8548958
0
ARC
8
DEFAULT_255_1_234
10
8.0214054
20
11.3598319
40
0.7610708
50
355.4988528
51
0.0791727
0
ARC
8
DEFAULT_255_1_234
10
8.0996676
20
11.433378
40
0.6828208
50
359.6455037
51
9.8607896
0
ARC
8
DEFAULT_255_1_234
10
8.3357374
20
11.4760099
40
0.4429406
50
9.6571907
51
26.1932807
0
ARC
8
DEFAULT_255_1_234
10
8.4285363
20
11.5191118
40
0.3406537
50
26.5777228
51
40.1532208
0
ARC
8
DEFAULT_255_1_234
10
8.4541089
20
11.5390619
40
0.308246
50
40.3840491
51
80.1431104
0
ARC
8
DEFAULT_255_1_234
10
8.4214207
20
11.3941333
40
0.4566909
50
79.2152159
51
89.7445637
0
LINE
8
DEFAULT_255_1_234
10
8.9165023
20
-1.0112151
11
8.7614897
21
-1.0112151
0
LINE
8
DEFAULT_255_1_234
10
8.0691539
20
-1.5035606
11
8.2241665
21
-1.5035606
0
ARC
8
DEFAULT_255_1_234
10
8.827371
20
-0.1165232
40
1.252368
50
248.9199003
51
254.1439814
0
ARC
8
DEFAULT_255_1_234
10
8.6593205
20
-0.5491766
40
0.788226
50
241.633709
51
249.0064503
0
ARC
8
DEFAULT_255_1_234
10
8.50646
20
-0.8292683
40
0.4691427
50
230.498225
51
241.8087113
0
ARC
8
DEFAULT_255_1_234
10
8.4280174
20
-0.9292094
40
0.3421437
50
227.4064532
51
229.9881192
0
ARC
8
DEFAULT_255_1_234
10
8.3792694
20
-0.9767912
40
0.2741476
50
200.6781896
51
228.1763934
0
ARC
8
DEFAULT_255_1_234
10
8.3865005
20
-0.9782923
40
0.2804109
50
179.5061581
51
199.8694617
0
ARC
8
DEFAULT_255_1_234
10
8.3855757
20
-0.970879
40
0.2795204
50
132.4834203
51
181.0242172
0
ARC
8
DEFAULT_255_1_234
10
8.4451339
20
-1.0271296
40
0.3612768
50
129.2532479
51
133.4242687
0
ARC
8
DEFAULT_255_1_234
10
8.4597789
20
-1.0491035
40
0.3875675
50
101.98776
51
128.8742646
0
ARC
8
DEFAULT_255_1_234
10
8.4996399
20
-1.2212259
40
0.5642249
50
89.5906553
51
102.3169264
0
ARC
8
DEFAULT_255_1_234
10
8.5066891
20
-1.1893852
40
0.5323783
50
77.2360837
51
90.3248275
0
ARC
8
DEFAULT_255_1_234
10
8.5273971
20
-1.09266
40
0.4334697
50
63.837784
51
77.0809408
0
ARC
8
DEFAULT_255_1_234
10
8.5551732
20
-1.0409089
40
0.3747796
50
45.9864267
51
64.1607727
0
ARC
8
DEFAULT_255_1_234
10
8.5812614
20
-1.0111134
40
0.3352302
50
32.2747395
51
45.6547121
0
ARC
8
DEFAULT_255_1_234
10
8.5879054
20
-1.009212
40
0.328603
50
359.6507365
51
32.6130309
0
ARC
8
DEFAULT_255_1_234
10
8.493615
20
-1.008734
40
0.2678863
50
359.469343
51
14.9832209
0
ARC
8
DEFAULT_255_1_234
10
8.5641212
20
-0.9898461
40
0.1948938
50
14.9781179
51
48.2004265
0
ARC
8
DEFAULT_255_1_234
10
8.5476856
20
-1.0105017
40
0.2212521
50
48.5927837
51
74.1241538
0
ARC
8
DEFAULT_255_1_234
10
8.5143346
20
-1.1205752
40
0.3362561
50
73.7888341
51
86.6652678
0
ARC
8
DEFAULT_255_1_234
10
8.5040911
20
-1.2413119
40
0.4573953
50
86.2640471
51
90.0526343
0
ARC
8
DEFAULT_255_1_234
10
8.5012624
20
-1.2017808
40
0.4178709
50
89.6697524
51
99.2309573
0
ARC
8
DEFAULT_255_1_234
10
8.4770075
20
-1.0573036
40
0.2713749
50
99.069534
51
113.7658566
0
ARC
8
DEFAULT_255_1_234
10
8.4496266
20
-0.9927323
40
0.2012469
50
114.0401004
51
127.9850673
0
ARC
8
DEFAULT_255_1_234
10
8.425583
20
-0.963127
40
0.1631167
50
127.7287463
51
176.7105154
0
ARC
8
DEFAULT_255_1_234
10
8.4934547
20
-0.9732307
40
0.2315392
50
175.1779447
51
180.0581938
0
ARC
8
DEFAULT_255_1_234
10
8.4091394
20
-0.9744572
40
0.1472271
50
179.6142195
51
228.1246017
0
ARC
8
DEFAULT_255_1_234
10
8.4533063
20
-0.9335692
40
0.2072299
50
226.5779593
51
230.8800004
0
ARC
8
DEFAULT_255_1_234
10
8.5004141
20
-0.8710364
40
0.2854818
50
231.4635071
51
241.9260842
0
ARC
8
DEFAULT_255_1_234
10
8.6201319
20
-0.65072
40
0.53622
50
241.7178533
51
248.3259551
0
ARC
8
DEFAULT_255_1_234
10
8.7586691
20
-0.3074936
40
0.9063478
50
248.2007737
51
252.4528373
0
ARC
8
DEFAULT_255_1_234
10
8.8790416
20
0.0646441
40
1.2974635
50
252.3391078
51
254.3469452
0
ARC
8
DEFAULT_255_1_234
10
8.1248119
20
-2.6330852
40
1.5037162
50
71.0197183
51
74.4087047
0
ARC
8
DEFAULT_255_1_234
10
8.2942804
20
-2.1438889
40
0.9859993
50
66.1847285
51
71.086374
0
ARC
8
DEFAULT_255_1_234
10
8.4499116
20
-1.79348
40
0.6025855
50
59.3536294
51
66.2691831
0
ARC
8
DEFAULT_255_1_234
10
8.5387769
20
-1.6431391
40
0.4279449
50
49.1020879
51
59.3293958
0
ARC
8
DEFAULT_255_1_234
10
8.6206509
20
-1.5498166
40
0.3038015
50
32.7919921
51
49.2505539
0
ARC
8
DEFAULT_255_1_234
10
8.6527599
20
-1.5269809
40
0.264448
50
31.1181161
51
32.4005348
0
ARC
8
DEFAULT_255_1_234
10
8.6439136
20
-1.5305221
40
0.2738556
50
8.1116974
51
30.7958831
0
ARC
8
DEFAULT_255_1_234
10
8.5628804
20
-1.5443247
40
0.3560327
50
359.8389159
51
8.4706516
0
ARC
8
DEFAULT_255_1_234
10
8.6254596
20
-1.5491863
40
0.2934776
50
337.4731098
51
0.7537279
0
ARC
8
DEFAULT_255_1_234
10
8.6433291
20
-1.5511613
40
0.2762607
50
307.5917067
51
336.4315538
0
ARC
8
DEFAULT_255_1_234
10
8.5973119
20
-1.4998898
40
0.3449979
50
307.6551545
51
308.4529766
0
ARC
8
DEFAULT_255_1_234
10
8.5742838
20
-1.464375
40
0.3871988
50
284.3734338
51
307.1424381
0
ARC
8
DEFAULT_255_1_234
10
8.5247668
20
-1.2822068
40
0.5759636
50
272.4382747
51
284.646547
0
ARC
8
DEFAULT_255_1_234
10
8.5120876
20
-1.1022107
40
0.7563528
50
269.9708387
51
272.8178037
0
ARC
8
DEFAULT_255_1_234
10
8.5077916
20
-1.3060284
40
0.5525489
50
248.2707594
51
270.4055579
0
ARC
8
DEFAULT_255_1_234
10
8.5023657
20
-1.3250808
40
0.5328452
50
246.1383403
51
248.0542782
0
ARC
8
DEFAULT_255_1_234
10
8.4605036
20
-1.4130157
40
0.4355005
50
233.1670131
51
246.4950969
0
ARC
8
DEFAULT_255_1_234
10
8.4050941
20
-1.4878188
40
0.3424126
50
215.3403242
51
233.0843104
0
ARC
8
DEFAULT_255_1_234
10
8.3778372
20
-1.5076451
40
0.3087104
50
179.2419209
51
215.2648451
0
ARC
8
DEFAULT_255_1_234
10
8.4545966
20
-1.5062334
40
0.2304457
50
179.335461
51
199.1045811
0
ARC
8
DEFAULT_255_1_234
10
8.4213643
20
-1.5149234
40
0.1962176
50
199.8828939
51
232.7063202
0
ARC
8
DEFAULT_255_1_234
10
8.4685911
20
-1.4555212
40
0.2720938
50
232.3738199
51
255.5136649
0
ARC
8
DEFAULT_255_1_234
10
8.5026778
20
-1.3311165
40
0.4010747
50
255.2446292
51
267.5320849
0
ARC
8
DEFAULT_255_1_234
10
8.5114401
20
-1.2078298
40
0.5246356
50
267.1557994
51
270.0286766
0
ARC
8
DEFAULT_255_1_234
10
8.5142173
20
-1.252205
40
0.4802668
50
269.7000017
51
278.1660162
0
ARC
8
DEFAULT_255_1_234
10
8.5398178
20
-1.4252485
40
0.3053425
50
278.0231263
51
290.625471
0
ARC
8
DEFAULT_255_1_234
10
8.5745865
20
-1.5179975
40
0.206291
50
290.6619762
51
307.0370976
0
ARC
8
DEFAULT_255_1_234
10
8.6046254
20
-1.5548496
40
0.1587906
50
306.3943566
51
355.3030547
0
ARC
8
DEFAULT_255_1_234
10
8.5534186
20
-1.5471887
40
0.2104809
50
354.3660432
51
0.0698737
0
ARC
8
DEFAULT_255_1_234
10
8.5676531
20
-1.5449383
40
0.1962563
50
359.417946
51
16.1971788
0
ARC
8
DEFAULT_255_1_234
10
8.6131841
20
-1.5324582
40
0.149053
50
16.4723299
51
52.6262157
0
ARC
8
DEFAULT_255_1_234
10
8.5310895
20
-1.6408567
40
0.2850296
50
52.7386432
51
62.4979148
0
ARC
8
DEFAULT_255_1_234
10
8.3925972
20
-1.9014717
40
0.5801521
50
62.2515216
51
68.1220564
0
ARC
8
DEFAULT_255_1_234
10
8.2205883
20
-2.3242128
40
1.0365451
50
68.0062803
51
71.8053402
0
ARC
8
DEFAULT_255_1_234
10
8.0410255
20
-2.8627242
40
1.6042013
50
71.7183119
51
73.9258742
0
ENDSEC
0
EOF