0
SECTION
2
HEADER
9
$MEASUREMENT
70
1
0
ENDSEC
0
SECTION
2
TABLES
0
TABLE
2
LTYPE
0
LTYPE
72
65
70
64
2
CONTINUOUS
3
______
73
0
40
0
0
ENDTAB
0
TABLE
2
LAYER
0
LAYER
2
DEFAULT_255_2_778
70
0
62
255
6
CONTINUOUS
0
LAYER
2
DEFAULT_255_1_234
70
0
62
255
6
CONTINUOUS
0
ENDTAB
0
ENDSEC
0
SECTION
2
ENTITIES
0
LINE
8
DEFAULT_255_2_778
10
2.7781169
20
7.8051665
11
16.0073169
21
7.8051665
0
LINE
8
DEFAULT_255_2_778
10
16.0073169
20
7.8051665
11
16.0073169
21
-2.7781335
0
LINE
8
DEFAULT_255_2_778
10
16.0073169
20
-2.7781335
11
2.7781169
21
-2.7781335
0
LINE
8
DEFAULT_255_2_778
10
2.7781169
20
-2.7781335
11
2.7781169
21
7.8051665
0
LINE
8
DEFAULT_255_2_778
10
16.0072834
20
5.1593333
11
13.3614834
21
5.1593333
0
LINE
8
DEFAULT_255_2_778
10
13.3614834
20
5.1593333
11
13.3614834
21
3.0426333
0
LINE
8
DEFAULT_255_2_778
10
16.0072834
20
-0.1323667
11
13.3614834
21
-0.1323667
0
LINE
8
DEFAULT_255_2_778
10
13.3614834
20
-0.1323667
11
13.3614834
21
1.9843333
0
LINE
8
DEFAULT_255_2_778
10
15.2136167
20
3.0427
11
11.5094167
21
3.0427
0
LINE
8
DEFAULT_255_2_778
10
15.2136167
20
1.9843
11
11.5094167
21
1.9843
0
LINE
8
DEFAULT_255_2_778
10
13.6260333
20
3.0426667
11
14.1552333
21
1.9843667
0
LINE
8
DEFAULT_255_2_778
10
14.1552333
20
1.9843667
11
14.6843333
21
3.0426667
0
LINE
8
DEFAULT_255_2_778
10
12.0385333
20
1.9843667
11
12.5677333
21
3.0426667
0
LINE
8
DEFAULT_255_2_778
10
12.5677333
20
3.0426667
11
13.0968333
21
1.9843667
0
LINE
8
DEFAULT_255_2_778
10
2.7780834
20
5.1593052
11
5.4238834
21
5.1593052
0
LINE
8
DEFAULT_255_2_778
10
5.4238834
20
5.1593052
11
5.4238834
21
3.3403052
0
LINE
8
DEFAULT_255_2_778
10
5.4240125
20
1.71975
11
4.4318125
21
3.30725
0
LINE
8
DEFAULT_255_2_778
10
4.4318125
20
3.30725
11
6.4162125
21
3.30725
0
LINE
8
DEFAULT_255_2_778
10
6.4162125
20
3.30725
11
5.4240125
21
1.71975
0
LINE
8
DEFAULT_255_2_778
10
6.0854417
20
1.7198
11
4.7625417
21
1.7198
0
LINE
8
DEFAULT_255_2_778
10
2.7780834
20
-0.1323313
11
5.4238834
21
-0.1323313
0
LINE
8
DEFAULT_255_2_778
10
5.4238834
20
-0.1323313
11
5.4238834
21
1.6535687
0
LINE
8
DEFAULT_255_2_778
10
8.9138511
20
2.7780833
11
9.7565511
21
3.0426833
0
LINE
8
DEFAULT_255_2_778
10
9.7565511
20
3.0426833
11
8.9138511
21
3.3072833
0
LINE
8
DEFAULT_255_2_778
10
8.9138511
20
3.3072833
11
8.9138511
21
2.7780833
0
LINE
8
DEFAULT_255_2_778
10
8.9628496
20
3.0427778
11
8.1137496
21
3.0421778
0
LINE
8
DEFAULT_255_2_778
10
8.9138511
20
1.7197833
11
9.7565511
21
1.9843833
0
LINE
8
DEFAULT_255_2_778
10
9.7565511
20
1.9843833
11
8.9138511
21
2.2489833
0
LINE
8
DEFAULT_255_2_778
10
8.9138511
20
2.2489833
11
8.9138511
21
1.7197833
0
LINE
8
DEFAULT_255_2_778
10
8.9520132
20
1.983014
11
8.1138132
21
1.986214
0
LINE
8
DEFAULT_255_1_234
10
4.7230802
20
6.0956
11
4.5672645
21
6.0956
0
LINE
8
DEFAULT_255_1_234
10
4.3994011
20
6.622482
11
4.5439724
21
6.622482
0
LINE
8
DEFAULT_255_1_234
10
4.5439724
20
6.622482
11
4.5439724
21
6.6907518
0
LINE
8
DEFAULT_255_1_234
10
4.1729061
20
6.7236819
11
4.0235158
21
6.7236819
0
LINE
8
DEFAULT_255_1_234
10
4.6925596
20
6.6987835
11
4.6925596
21
6.298803
0
LINE
8
DEFAULT_255_1_234
10
4.7230802
20
6.1084508
11
4.7230802
21
6.0956
0
LINE
8
DEFAULT_255_1_234
10
4.5439724
20
6.3389617
11
4.5439724
21
6.5172663
0
LINE
8
DEFAULT_255_1_234
10
4.5439724
20
6.5172663
11
4.4275122
21
6.5172663
0
ARC
8
DEFAULT_255_1_234
10
4.6712183
20
6.1460194
40
0.1155358
50
197.0791116
51
205.8741701
0
ARC
8
DEFAULT_255_1_234
10
4.7950782
20
6.1852654
40
0.2454626
50
192.2918602
51
197.3448991
0
ARC
8
DEFAULT_255_1_234
10
4.9904231
20
6.2286663
40
0.4455697
50
189.1576348
51
192.3971359
0
ARC
8
DEFAULT_255_1_234
10
5.2718512
20
6.2745549
40
0.7307142
50
186.8689952
51
189.1979448
0
ARC
8
DEFAULT_255_1_234
10
4.2889666
20
6.4292258
40
0.353352
50
294.0080019
51
316.7604136
0
ARC
8
DEFAULT_255_1_234
10
4.301873
20
6.4110572
40
0.3315331
50
269.5042461
51
293.2479736
0
ARC
8
DEFAULT_255_1_234
10
4.2959215
20
6.4511491
40
0.3716254
50
255.403374
51
270.4753162
0
ARC
8
DEFAULT_255_1_234
10
4.2729187
20
6.3618825
40
0.2794431
50
228.6140946
51
255.354999
0
ARC
8
DEFAULT_255_1_234
10
4.239671
20
6.3300491
40
0.2336109
50
181.8953303
51
229.5703879
0
ARC
8
DEFAULT_255_1_234
10
4.2988216
20
6.3364708
40
0.2929755
50
179.984097
51
182.7679515
0
ARC
8
DEFAULT_255_1_234
10
4.2905158
20
6.3399413
40
0.28469
50
161.0341165
51
180.6820968
0
ARC
8
DEFAULT_255_1_234
10
4.2465704
20
6.3513729
40
0.2394402
50
125.0523775
51
160.2033967
0
ARC
8
DEFAULT_255_1_234
10
4.3127713
20
6.2610431
40
0.3514152
50
106.2671988
51
125.4298572
0
ARC
8
DEFAULT_255_1_234
10
4.3700169
20
6.0739842
40
0.5470269
50
95.4857064
51
106.534858
0
ARC
8
DEFAULT_255_1_234
10
4.3973322
20
5.8240758
40
0.7984089
50
89.8515322
51
95.7224983
0
ARC
8
DEFAULT_255_1_234
10
4.3333918
20
6.6925759
40
0.2105886
50
359.503704
51
14.3184734
0
ARC
8
DEFAULT_255_1_234
10
4.3908042
20
6.7075017
40
0.1512684
50
14.2187004
51
45.2025693
0
ARC
8
DEFAULT_255_1_234
10
4.3944238
20
6.7089251
40
0.1477163
50
45.8098026
51
73.0032427
0
ARC
8
DEFAULT_255_1_234
10
4.3695206
20
6.6327896
40
0.2278113
50
72.610967
51
85.7232876
0
ARC
8
DEFAULT_255_1_234
10
4.36052
20
6.5414569
40
0.3195681
50
85.3352114
51
90.0850615
0
ARC
8
DEFAULT_255_1_234
10
4.3581603
20
6.6005391
40
0.2604924
50
89.5853149
51
103.4592217
0
ARC
8
DEFAULT_255_1_234
10
4.3429206
20
6.6640597
40
0.1951693
50
103.44851
51
126.5404292
0
ARC
8
DEFAULT_255_1_234
10
4.3190086
20
6.694643
40
0.1563639
50
126.1729825
51
141.5004088
0
ARC
8
DEFAULT_255_1_234
10
4.2811687
20
6.7243385
40
0.1082645
50
141.3333588
51
180.3474677
0
ARC
8
DEFAULT_255_1_234
10
4.2137397
20
6.7226174
40
0.1902269
50
151.6374668
51
179.6793754
0
ARC
8
DEFAULT_255_1_234
10
4.2739639
20
6.6926334
40
0.2574753
50
142.4988163
51
152.1325379
0
ARC
8
DEFAULT_255_1_234
10
4.3057599
20
6.6676735
40
0.2978957
50
120.8284787
51
142.4132259
0
ARC
8
DEFAULT_255_1_234
10
4.3473708
20
6.6025301
40
0.3751664
50
113.9638113
51
121.1869885
0
ARC
8
DEFAULT_255_1_234
10
4.360986
20
6.5693544
40
0.4110136
50
93.3784663
51
113.8198047
0
ARC
8
DEFAULT_255_1_234
10
4.3686641
20
6.4928446
40
0.487853
50
89.9745882
51
93.7491274
0
ARC
8
DEFAULT_255_1_234
10
4.3721528
20
6.4964605
40
0.4842481
50
79.1325877
51
90.3871757
0
ARC
8
DEFAULT_255_1_234
10
4.4046648
20
6.6589435
40
0.3185522
50
60.1435559
51
79.3654871
0
ARC
8
DEFAULT_255_1_234
10
4.4303337
20
6.708243
40
0.2630271
50
48.6192091
51
59.646742
0
ARC
8
DEFAULT_255_1_234
10
4.4351075
20
6.7145691
40
0.2551253
50
9.0349315
51
48.4844544
0
ARC
8
DEFAULT_255_1_234
10
4.3274918
20
6.6910793
40
0.3651489
50
1.2089744
51
10.0233366
0
ARC
8
DEFAULT_255_1_234
10
5.4561664
20
6.2963518
40
0.7636108
50
179.8160804
51
185.3206488
0
ARC
8
DEFAULT_255_1_234
10
5.1866146
20
6.2706155
40
0.4928344
50
185.2474014
51
192.7953707
0
ARC
8
DEFAULT_255_1_234
10
5.0104403
20
6.2301824
40
0.3120807
50
192.7197759
51
202.9585048
0
ARC
8
DEFAULT_255_1_234
10
4.3206586
20
6.4699928
40
0.2611453
50
270.0069004
51
300.5035019
0
ARC
8
DEFAULT_255_1_234
10
4.3329194
20
6.4571927
40
0.2439274
50
299.5482464
51
315.6095048
0
ARC
8
DEFAULT_255_1_234
10
4.3619291
20
6.4275155
40
0.2024389
50
315.868035
51
334.0596869
0
ARC
8
DEFAULT_255_1_234
10
4.4231651
20
5.8198943
40
0.6973855
50
89.6428514
51
97.2870891
0
ARC
8
DEFAULT_255_1_234
10
4.3790414
20
6.1502571
40
0.3640992
50
96.9938028
51
109.7781797
0
ARC
8
DEFAULT_255_1_234
10
4.3125039
20
6.3283891
40
0.1739759
50
109.0087453
51
135.326626
0
ARC
8
DEFAULT_255_1_234
10
4.2851643
20
6.3622473
40
0.1308198
50
137.4539381
51
182.1082805
0
ARC
8
DEFAULT_255_1_234
10
4.3225634
20
6.3557893
40
0.1681384
50
179.4392907
51
195.7200177
0
ARC
8
DEFAULT_255_1_234
10
4.2814062
20
6.3445426
40
0.1254738
50
195.8684065
51
230.1572205
0
ARC
8
DEFAULT_255_1_234
10
4.3056489
20
6.3735769
40
0.1632985
50
230.1530708
51
259.7485588
0
ARC
8
DEFAULT_255_1_234
10
4.3195193
20
6.4389386
40
0.230094
50
259.2463819
51
270.291543
0
LINE
8
DEFAULT_255_1_234
10
4.6063994
20
0.8039
11
4.3036028
21
1.2062901
0
LINE
8
DEFAULT_255_1_234
10
4.3036028
20
1.2062901
11
4.2104347
21
1.1091061
0
LINE
8
DEFAULT_255_1_234
10
4.2104347
20
1.1091061
11
4.2104347
21
0.8039
0
LINE
8
DEFAULT_255_1_234
10
4.2104347
20
0.8039
11
4.0618475
21
0.8039
0
LINE
8
DEFAULT_255_1_234
10
4.0618475
20
0.8039
11
4.0618475
21
2.037575
0
LINE
8
DEFAULT_255_1_234
10
4.0618475
20
2.037575
11
4.2104347
21
2.037575
0
LINE
8
DEFAULT_255_1_234
10
4.2104347
20
2.037575
11
4.2104347
21
1.2914265
0
LINE
8
DEFAULT_255_1_234
10
4.2104347
20
1.2914265
11
4.2899489
21
1.3870042
0
LINE
8
DEFAULT_255_1_234
10
4.2899489
20
1.3870042
11
4.5606185
21
1.6729341
0
LINE
8
DEFAULT_255_1_234
10
4.5606185
20
1.6729341
11
4.7413326
21
1.6729341
0
LINE
8
DEFAULT_255_1_234
10
4.7413326
20
1.6729341
11
4.4031964
21
1.3098995
0
LINE
8
DEFAULT_255_1_234
10
4.4031964
20
1.3098995
11
4.7806881
21
0.8039
0
LINE
8
DEFAULT_255_1_234
10
4.7806881
20
0.8039
11
4.6063994
21
0.8039
0
LINE
8
DEFAULT_255_1_234
10
13.4933137
20
7.2706433
11
13.4933137
21
6.0956
0
LINE
8
DEFAULT_255_1_234
10
13.4933137
20
6.0956
11
13.3439234
21
6.0956
0
LINE
8
DEFAULT_255_1_234
10
13.3439234
20
6.0956
11
13.3439234
21
7.0859133
0
LINE
8
DEFAULT_255_1_234
10
13.3439234
20
7.0859133
11
13.0443396
21
6.9758785
0
LINE
8
DEFAULT_255_1_234
10
13.0443396
20
6.9758785
11
13.0443396
21
7.1108117
0
LINE
8
DEFAULT_255_1_234
10
13.0443396
20
7.1108117
11
13.4700217
21
7.2706433
0
LINE
8
DEFAULT_255_1_234
10
13.4700217
20
7.2706433
11
13.4933137
21
7.2706433
0
LINE
8
DEFAULT_255_1_234
10
13.7629119
20
0.9251792
11
13.7629119
21
0.8039
0
LINE
8
DEFAULT_255_1_234
10
13.7629119
20
0.8039
11
12.996684
21
0.8039
0
LINE
8
DEFAULT_255_1_234
10
12.996684
20
0.8039
11
12.996684
21
0.9107221
0
LINE
8
DEFAULT_255_1_234
10
12.996684
20
0.9107221
11
13.4014836
21
1.3604995
0
LINE
8
DEFAULT_255_1_234
10
13.1227823
20
1.6287595
11
12.9741952
21
1.6287595
0
LINE
8
DEFAULT_255_1_234
10
13.4890296
20
1.2649218
11
13.1757918
21
0.9251792
0
LINE
8
DEFAULT_255_1_234
10
13.1757918
20
0.9251792
11
13.7629119
21
0.9251792
0
ARC
8
DEFAULT_255_1_234
10
12.052467
20
2.5534527
40
1.8008286
50
318.5132453
51
320.7828378
0
ARC
8
DEFAULT_255_1_234
10
12.5811644
20
2.1231426
40
1.1191493
50
320.7372736
51
323.9737074
0
ARC
8
DEFAULT_255_1_234
10
12.9731501
20
1.8391361
40
0.6350923
50
323.8961724
51
328.6421089
0
ARC
8
DEFAULT_255_1_234
10
13.1778096
20
1.7129031
40
0.3946393
50
328.8299013
51
331.789948
0
ARC
8
DEFAULT_255_1_234
10
13.2775274
20
1.6614509
40
0.2824501
50
331.4255242
51
352.9364833
0
ARC
8
DEFAULT_255_1_234
10
13.2911775
20
1.6583976
40
0.2685315
50
353.2248685
51
0.0169286
0
ARC
8
DEFAULT_255_1_234
10
13.3121652
20
1.660695
40
0.2475536
50
359.4866256
51
15.9339782
0
ARC
8
DEFAULT_255_1_234
10
13.3628637
20
1.6743286
40
0.1950618
50
16.1714718
51
43.5284424
0
ARC
8
DEFAULT_255_1_234
10
13.3705946
20
1.6820573
40
0.184134
50
43.4415429
51
83.1661404
0
ARC
8
DEFAULT_255_1_234
10
13.3571864
20
1.6083771
40
0.258926
50
82.160215
51
90.1505798
0
ARC
8
DEFAULT_255_1_234
10
13.3540291
20
1.5546865
40
0.3126255
50
89.5460705
51
102.5418777
0
ARC
8
DEFAULT_255_1_234
10
13.3297377
20
1.6577665
40
0.2067346
50
102.1739365
51
129.2061916
0
ARC
8
DEFAULT_255_1_234
10
13.3218449
20
1.6702094
40
0.1921118
50
129.7279328
51
135.7542026
0
ARC
8
DEFAULT_255_1_234
10
13.3339977
20
1.6605045
40
0.2075944
50
136.175737
51
166.3674722
0
ARC
8
DEFAULT_255_1_234
10
13.4346896
20
1.6335182
40
0.3118201
50
165.9092917
51
178.8683903
0
ARC
8
DEFAULT_255_1_234
10
13.5211757
20
1.6288179
40
0.3983935
50
178.438168
51
180.0083905
0
ARC
8
DEFAULT_255_1_234
10
13.3810359
20
1.6327231
40
0.4068601
50
163.2878735
51
180.5581814
0
ARC
8
DEFAULT_255_1_234
10
13.3008621
20
1.654784
40
0.3237344
50
133.454115
51
162.9470031
0
ARC
8
DEFAULT_255_1_234
10
13.3187162
20
1.6358
40
0.349795
50
100.7869394
51
133.4384016
0
ARC
8
DEFAULT_255_1_234
10
13.3534934
20
1.4809319
40
0.5084616
50
89.6605301
51
101.3704185
0
ARC
8
DEFAULT_255_1_234
10
13.3601273
20
1.4870496
40
0.502348
50
78.2171172
51
90.4130393
0
ARC
8
DEFAULT_255_1_234
10
13.3956351
20
1.6494637
40
0.3361092
50
55.9268222
51
78.4888551
0
ARC
8
DEFAULT_255_1_234
10
13.4152791
20
1.6833324
40
0.2970617
50
47.9292255
51
55.4054003
0
ARC
8
DEFAULT_255_1_234
10
13.4254352
20
1.6936502
40
0.2825983
50
4.3347696
51
48.0560701
0
ARC
8
DEFAULT_255_1_234
10
13.3158745
20
1.6766601
40
0.393225
50
359.925209
51
5.5967654
0
ARC
8
DEFAULT_255_1_234
10
13.3587637
20
1.6822816
40
0.3503892
50
337.8914096
51
358.9967724
0
ARC
8
DEFAULT_255_1_234
10
13.0874049
20
1.7869706
40
0.6412172
50
326.9135351
51
338.3505194
0
ARC
8
DEFAULT_255_1_234
10
12.6888353
20
2.0424284
40
1.1146189
50
319.6472867
51
327.095818
0
ARC
8
DEFAULT_255_1_234
10
12.3055356
20
2.3586
40
1.6114559
50
317.2586784
51
319.9046139
0
ENDSEC
0
EOF