0
SECTION
2
HEADER
9
$MEASUREMENT
70
1
0
ENDSEC
0
SECTION
2
TABLES
0
TABLE
2
LTYPE
0
LTYPE
72
65
70
64
2
CONTINUOUS
3
______
73
0
40
0
0
ENDTAB
0
TABLE
2
LAYER
0
LAYER
2
DEFAULT_255_2_778
70
0
62
255
6
CONTINUOUS
0
LAYER
2
DEFAULT_255_1_234
70
0
62
255
6
CONTINUOUS
0
ENDTAB
0
ENDSEC
0
SECTION
2
ENTITIES
0
LINE
8
DEFAULT_255_2_778
10
3.8323002
20
7.8051665
11
19.7073002
21
7.8051665
0
LINE
8
DEFAULT_255_2_778
10
19.7073002
20
7.8051665
11
19.7073002
21
-2.7781335
0
LINE
8
DEFAULT_255_2_778
10
19.7073002
20
-2.7781335
11
3.8323002
21
-2.7781335
0
LINE
8
DEFAULT_255_2_778
10
3.8323002
20
-2.7781335
11
3.8323002
21
7.8051665
0
LINE
8
DEFAULT_255_2_778
10
3.8322231
20
5.1593166
11
7.5364231
21
5.1593166
0
LINE
8
DEFAULT_255_2_778
10
7.5364231
20
5.1593166
11
7.5364231
21
3.3403166
0
LINE
8
DEFAULT_255_2_778
10
17.0614231
20
2.5135166
11
16.0692231
21
4.1010166
0
LINE
8
DEFAULT_255_2_778
10
16.0692231
20
4.1010166
11
18.0536231
21
4.1010166
0
LINE
8
DEFAULT_255_2_778
10
18.0536231
20
4.1010166
11
17.0614231
21
2.5135166
0
LINE
8
DEFAULT_255_2_778
10
18.3843585
20
1.7197916
11
17.7228585
21
2.5135916
0
LINE
8
DEFAULT_255_2_778
10
17.7228585
20
2.5135916
11
16.3999585
21
2.5135916
0
LINE
8
DEFAULT_255_2_778
10
16.3999585
20
2.5135916
11
15.7384585
21
3.3072916
0
LINE
8
DEFAULT_255_2_778
10
3.8322585
20
-0.1323084
11
7.5364585
21
-0.1323084
0
LINE
8
DEFAULT_255_2_778
10
7.5364585
20
-0.1323084
11
7.5364585
21
1.7197916
0
LINE
8
DEFAULT_255_2_778
10
6.5442125
20
1.71975
11
8.5286125
21
1.71975
0
LINE
8
DEFAULT_255_2_778
10
8.5286125
20
1.71975
11
7.5364125
21
3.30725
0
LINE
8
DEFAULT_255_2_778
10
7.5364125
20
3.30725
11
6.5442125
21
1.71975
0
LINE
8
DEFAULT_255_2_778
10
6.8749543
20
3.3072333
11
8.1978543
21
3.3072333
0
LINE
8
DEFAULT_255_2_778
10
19.7072543
20
5.1593333
11
14.4155543
21
5.1593333
0
LINE
8
DEFAULT_255_2_778
10
14.4155543
20
5.1593333
11
14.4155543
21
4.6301333
0
LINE
8
DEFAULT_255_2_778
10
14.4155543
20
4.6301333
11
13.3572543
21
4.6301333
0
LINE
8
DEFAULT_255_2_778
10
19.7072543
20
-0.1323667
11
14.4155543
21
-0.1323667
0
LINE
8
DEFAULT_255_2_778
10
14.4155543
20
-0.1323667
11
14.4155543
21
0.3968333
0
LINE
8
DEFAULT_255_2_778
10
14.4155543
20
0.3968333
11
13.3572543
21
0.3968333
0
LINE
8
DEFAULT_255_2_778
10
17.0614
20
5.1593333
11
17.0614
21
4.1010333
0
LINE
8
DEFAULT_255_2_778
10
17.0614
20
-0.1323667
11
17.0614
21
0.9260333
0
LINE
8
DEFAULT_255_2_778
10
9.7441302
20
3.9173937
11
10.1822302
21
4.6301937
0
LINE
8
DEFAULT_255_2_778
10
10.1822302
20
4.6301937
11
9.4041302
21
4.3227937
0
LINE
8
DEFAULT_255_2_778
10
9.4041302
20
4.3227937
11
9.7441302
21
3.9173937
0
LINE
8
DEFAULT_255_2_778
10
9.574324
20
4.1197708
11
8.899324
21
3.5620708
0
LINE
8
DEFAULT_255_2_778
10
9.7441302
20
2.8589937
11
10.1822302
21
3.5717937
0
LINE
8
DEFAULT_255_2_778
10
10.1822302
20
3.5717937
11
9.4041302
21
3.2643937
0
LINE
8
DEFAULT_255_2_778
10
9.4041302
20
3.2643937
11
9.7441302
21
2.8589937
0
LINE
8
DEFAULT_255_2_778
10
9.574324
20
3.0614708
11
8.899324
21
2.5037708
0
LINE
8
DEFAULT_255_2_778
10
13.3572167
20
3.8363833
11
13.8864167
21
4.1009833
0
LINE
8
DEFAULT_255_2_778
10
13.8864167
20
4.1009833
11
13.8864167
21
3.5717833
0
LINE
8
DEFAULT_255_2_778
10
13.8864167
20
3.5717833
11
13.3572167
21
3.8363833
0
LINE
8
DEFAULT_255_2_778
10
13.3573
20
4.1010583
11
13.3573
21
3.5718583
0
LINE
8
DEFAULT_255_2_778
10
13.3573
20
3.3073583
11
13.3573
21
2.7781583
0
LINE
8
DEFAULT_255_2_778
10
14.4156563
20
3.0426499
11
13.3572563
21
3.0426499
0
LINE
8
DEFAULT_255_2_778
10
13.3572563
20
4.8947499
11
13.3572563
21
4.3655499
0
LINE
8
DEFAULT_255_2_778
10
12.8281563
20
4.8947499
11
12.8281563
21
2.7780499
0
LINE
8
DEFAULT_255_2_778
10
12.8281563
20
2.7780499
11
12.2989563
21
2.7780499
0
LINE
8
DEFAULT_255_2_778
10
12.2989563
20
2.7780499
11
12.2989563
21
0.1322499
0
LINE
8
DEFAULT_255_2_778
10
12.2989563
20
0.1322499
11
12.8281563
21
0.1322499
0
LINE
8
DEFAULT_255_2_778
10
12.8281563
20
0.1322499
11
12.8281563
21
2.2489499
0
LINE
8
DEFAULT_255_2_778
10
16.0692563
20
0.9260499
11
18.0536563
21
0.9260499
0
LINE
8
DEFAULT_255_2_778
10
18.0536563
20
0.9260499
11
17.0614563
21
2.5135499
0
LINE
8
DEFAULT_255_2_778
10
17.0614563
20
2.5135499
11
16.0692563
21
0.9260499
0
LINE
8
DEFAULT_255_2_778
10
13.3572167
20
1.1905833
11
13.8864167
21
1.4551833
0
LINE
8
DEFAULT_255_2_778
10
13.8864167
20
1.4551833
11
13.8864167
21
0.9259833
0
LINE
8
DEFAULT_255_2_778
10
13.8864167
20
0.9259833
11
13.3572167
21
1.1905833
0
LINE
8
DEFAULT_255_2_778
10
13.3572333
20
1.4551416
11
13.3572333
21
0.9260416
0
LINE
8
DEFAULT_255_2_778
10
13.3572333
20
0.6614416
11
13.3572333
21
0.1322416
0
LINE
8
DEFAULT_255_2_778
10
14.4155333
20
1.9843416
11
13.3572333
21
1.9843416
0
LINE
8
DEFAULT_255_2_778
10
13.3573
20
2.2488833
11
13.3573
21
1.7196833
0
LINE
8
DEFAULT_255_2_778
10
13.3572333
20
3.8364166
11
14.4155333
21
3.8364166
0
LINE
8
DEFAULT_255_2_778
10
14.4155333
20
3.8364166
11
14.4155333
21
1.1906166
0
LINE
8
DEFAULT_255_2_778
10
14.4155333
20
1.1906166
11
13.3572333
21
1.1906166
0
LINE
8
DEFAULT_255_1_234
10
21.4101137
20
7.2706433
11
21.4101137
21
6.0956
0
LINE
8
DEFAULT_255_1_234
10
21.4101137
20
6.0956
11
21.2607234
21
6.0956
0
LINE
8
DEFAULT_255_1_234
10
21.2607234
20
6.0956
11
21.2607234
21
7.0859133
0
LINE
8
DEFAULT_255_1_234
10
21.2607234
20
7.0859133
11
20.9611396
21
6.9758785
0
LINE
8
DEFAULT_255_1_234
10
20.9611396
20
6.9758785
11
20.9611396
21
7.1108117
0
LINE
8
DEFAULT_255_1_234
10
20.9611396
20
7.1108117
11
21.3868217
21
7.2706433
0
LINE
8
DEFAULT_255_1_234
10
21.3868217
20
7.2706433
11
21.4101137
21
7.2706433
0
LINE
8
DEFAULT_255_1_234
10
21.6963119
20
0.9251792
11
21.6963119
21
0.8039
0
LINE
8
DEFAULT_255_1_234
10
21.6963119
20
0.8039
11
20.930084
21
0.8039
0
LINE
8
DEFAULT_255_1_234
10
20.930084
20
0.8039
11
20.930084
21
0.9107221
0
LINE
8
DEFAULT_255_1_234
10
20.930084
20
0.9107221
11
21.3348836
21
1.3604995
0
LINE
8
DEFAULT_255_1_234
10
21.0561823
20
1.6287595
11
20.9075952
21
1.6287595
0
LINE
8
DEFAULT_255_1_234
10
21.4224296
20
1.2649218
11
21.1091918
21
0.9251792
0
LINE
8
DEFAULT_255_1_234
10
21.1091918
20
0.9251792
11
21.6963119
21
0.9251792
0
ARC
8
DEFAULT_255_1_234
10
19.985867
20
2.5534527
40
1.8008286
50
318.5132453
51
320.7828378
0
ARC
8
DEFAULT_255_1_234
10
20.5145644
20
2.1231426
40
1.1191493
50
320.7372736
51
323.9737074
0
ARC
8
DEFAULT_255_1_234
10
20.9065501
20
1.8391361
40
0.6350923
50
323.8961724
51
328.6421089
0
ARC
8
DEFAULT_255_1_234
10
21.1112096
20
1.7129031
40
0.3946393
50
328.8299013
51
331.789948
0
ARC
8
DEFAULT_255_1_234
10
21.2109274
20
1.6614509
40
0.2824501
50
331.4255242
51
352.9364833
0
ARC
8
DEFAULT_255_1_234
10
21.2245775
20
1.6583976
40
0.2685315
50
353.2248685
51
0.0169286
0
ARC
8
DEFAULT_255_1_234
10
21.2455652
20
1.660695
40
0.2475536
50
359.4866256
51
15.9339782
0
ARC
8
DEFAULT_255_1_234
10
21.2962637
20
1.6743286
40
0.1950618
50
16.1714718
51
43.5284424
0
ARC
8
DEFAULT_255_1_234
10
21.3039946
20
1.6820573
40
0.184134
50
43.4415429
51
83.1661404
0
ARC
8
DEFAULT_255_1_234
10
21.2905864
20
1.6083771
40
0.258926
50
82.160215
51
90.1505798
0
ARC
8
DEFAULT_255_1_234
10
21.2874291
20
1.5546865
40
0.3126255
50
89.5460705
51
102.5418777
0
ARC
8
DEFAULT_255_1_234
10
21.2631377
20
1.6577665
40
0.2067346
50
102.1739365
51
129.2061916
0
ARC
8
DEFAULT_255_1_234
10
21.2552449
20
1.6702094
40
0.1921118
50
129.7279328
51
135.7542026
0
ARC
8
DEFAULT_255_1_234
10
21.2673977
20
1.6605045
40
0.2075944
50
136.175737
51
166.3674722
0
ARC
8
DEFAULT_255_1_234
10
21.3680896
20
1.6335182
40
0.3118201
50
165.9092917
51
178.8683903
0
ARC
8
DEFAULT_255_1_234
10
21.4545757
20
1.6288179
40
0.3983935
50
178.438168
51
180.0083905
0
ARC
8
DEFAULT_255_1_234
10
21.3144359
20
1.6327231
40
0.4068601
50
163.2878735
51
180.5581814
0
ARC
8
DEFAULT_255_1_234
10
21.2342621
20
1.654784
40
0.3237344
50
133.454115
51
162.9470031
0
ARC
8
DEFAULT_255_1_234
10
21.2521162
20
1.6358
40
0.349795
50
100.7869394
51
133.4384016
0
ARC
8
DEFAULT_255_1_234
10
21.2868934
20
1.4809319
40
0.5084616
50
89.6605301
51
101.3704185
0
ARC
8
DEFAULT_255_1_234
10
21.2935273
20
1.4870496
40
0.502348
50
78.2171172
51
90.4130393
0
ARC
8
DEFAULT_255_1_234
10
21.3290351
20
1.6494637
40
0.3361092
50
55.9268222
51
78.4888551
0
ARC
8
DEFAULT_255_1_234
10
21.3486791
20
1.6833324
40
0.2970617
50
47.9292255
51
55.4054003
0
ARC
8
DEFAULT_255_1_234
10
21.3588352
20
1.6936502
40
0.2825983
50
4.3347696
51
48.0560701
0
ARC
8
DEFAULT_255_1_234
10
21.2492745
20
1.6766601
40
0.393225
50
359.925209
51
5.5967654
0
ARC
8
DEFAULT_255_1_234
10
21.2921637
20
1.6822816
40
0.3503892
50
337.8914096
51
358.9967724
0
ARC
8
DEFAULT_255_1_234
10
21.0208049
20
1.7869706
40
0.6412172
50
326.9135351
51
338.3505194
0
ARC
8
DEFAULT_255_1_234
10
20.6222353
20
2.0424284
40
1.1146189
50
319.6472867
51
327.095818
0
ARC
8
DEFAULT_255_1_234
10
20.2389356
20
2.3586
40
1.6114559
50
317.2586784
51
319.9046139
0
LINE
8
DEFAULT_255_1_234
10
0.2716265
20
1.7725276
11
0.2716265
21
1.4311788
0
LINE
8
DEFAULT_255_1_234
10
0.2716265
20
1.4311788
11
0.597715
21
1.4311788
0
LINE
8
DEFAULT_255_1_234
10
0.597715
20
1.4311788
11
0.597715
21
1.2906233
0
LINE
8
DEFAULT_255_1_234
10
0.597715
20
1.2906233
11
0.2716265
21
1.2906233
0
LINE
8
DEFAULT_255_1_234
10
0.2716265
20
1.2906233
11
0.2716265
21
0.9211634
0
LINE
8
DEFAULT_255_1_234
10
0.2716265
20
0.9211634
11
0.1222361
21
0.9211634
0
LINE
8
DEFAULT_255_1_234
10
0.1222361
20
0.9211634
11
0.1222361
21
1.2906233
0
LINE
8
DEFAULT_255_1_234
10
0.1222361
20
1.2906233
11
-0.2038524
21
1.2906233
0
LINE
8
DEFAULT_255_1_234
10
-0.2038524
20
1.2906233
11
-0.2038524
21
1.4311788
0
LINE
8
DEFAULT_255_1_234
10
-0.2038524
20
1.4311788
11
0.1222361
21
1.4311788
0
LINE
8
DEFAULT_255_1_234
10
0.1222361
20
1.4311788
11
0.1222361
21
1.7725276
0
LINE
8
DEFAULT_255_1_234
10
0.1222361
20
1.7725276
11
0.2716265
21
1.7725276
0
LINE
8
DEFAULT_255_1_234
10
0.9792226
20
1.3396169
11
0.9792226
21
1.4608962
0
LINE
8
DEFAULT_255_1_234
10
0.9792226
20
1.4608962
11
1.0908638
21
1.4608962
0
LINE
8
DEFAULT_255_1_234
10
0.9005116
20
1.6665087
11
0.7519244
21
1.6665087
0
LINE
8
DEFAULT_255_1_234
10
0.7414832
20
1.1123187
11
0.8908735
21
1.1123187
0
LINE
8
DEFAULT_255_1_234
10
1.0908638
20
1.3396169
11
0.9792226
21
1.3396169
0
ARC
8
DEFAULT_255_1_234
10
1.0879504
20
1.8001713
40
0.3392876
50
270.4919872
51
281.8951556
0
ARC
8
DEFAULT_255_1_234
10
1.1120766
20
1.6899702
40
0.2264817
50
281.6691735
51
301.2943132
0
ARC
8
DEFAULT_255_1_234
10
1.1290976
20
1.6588304
40
0.1910381
50
301.7833094
51
311.7545298
0
ARC
8
DEFAULT_255_1_234
10
1.1382552
20
1.6486748
40
0.1773635
50
311.7323931
51
354.2802411
0
ARC
8
DEFAULT_255_1_234
10
1.0656177
20
1.6611722
40
0.2509385
50
353.0937916
51
0.1181479
0
ARC
8
DEFAULT_255_1_234
10
1.0194962
20
1.6659386
40
0.2970898
50
359.1805295
51
15.0453146
0
ARC
8
DEFAULT_255_1_234
10
1.1540799
20
1.7051992
40
0.1569564
50
13.9577229
51
77.6713066
0
ARC
8
DEFAULT_255_1_234
10
1.1154328
20
1.5666949
40
0.3006298
50
76.1116566
51
90.7026153
0
ARC
8
DEFAULT_255_1_234
10
1.1095166
20
1.5940545
40
0.2732568
50
89.5324876
51
103.531937
0
ARC
8
DEFAULT_255_1_234
10
1.0894611
20
1.6739884
40
0.1908508
50
103.2931773
51
133.5619022
0
ARC
8
DEFAULT_255_1_234
10
1.0850099
20
1.6799375
40
0.1834746
50
133.8349307
51
173.5344437
0
ARC
8
DEFAULT_255_1_234
10
1.1573142
20
1.6671213
40
0.2568033
50
172.5096846
51
180.1366907
0
ARC
8
DEFAULT_255_1_234
10
1.0622036
20
1.6705622
40
0.3103056
50
155.3484492
51
180.7484736
0
ARC
8
DEFAULT_255_1_234
10
1.0573125
20
1.6676846
40
0.3070957
50
131.5744599
51
154.4798489
0
ARC
8
DEFAULT_255_1_234
10
1.0886272
20
1.636031
40
0.3515643
50
96.9875458
51
131.9690667
0
ARC
8
DEFAULT_255_1_234
10
1.1105752
20
1.5114636
40
0.4779224
50
89.8596053
51
97.7825159
0
ARC
8
DEFAULT_255_1_234
10
1.1153815
20
1.4852616
40
0.5041361
50
78.3655447
51
90.4131539
0
ARC
8
DEFAULT_255_1_234
10
1.1511733
20
1.6511887
40
0.3344039
50
56.6229102
51
78.638727
0
ARC
8
DEFAULT_255_1_234
10
1.1726677
20
1.6887805
40
0.2912001
50
47.0253525
51
56.0854072
0
ARC
8
DEFAULT_255_1_234
10
1.1746457
20
1.6927223
40
0.2869704
50
10.9208013
51
46.7778124
0
ARC
8
DEFAULT_255_1_234
10
1.0382524
20
1.6611857
40
0.426899
50
359.6364486
51
11.6087304
0
ARC
8
DEFAULT_255_1_234
10
1.2217368
20
1.6596752
40
0.243409
50
332.3549906
51
359.7179418
0
ARC
8
DEFAULT_255_1_234
10
1.1566969
20
1.6905142
40
0.3153459
50
325.2333722
51
332.8745602
0
ARC
8
DEFAULT_255_1_234
10
1.1719593
20
1.6798828
40
0.2967456
50
292.9802137
51
325.2392345
0
ARC
8
DEFAULT_255_1_234
10
1.1444967
20
1.7332863
40
0.3566604
50
292.5402179
51
293.6924929
0
ARC
8
DEFAULT_255_1_234
10
1.1837563
20
1.0878091
40
0.3307468
50
57.6435486
51
72.8625112
0
ARC
8
DEFAULT_255_1_234
10
1.2192062
20
1.1452549
40
0.2632492
50
36.7248896
51
57.4697979
0
ARC
8
DEFAULT_255_1_234
10
1.2180695
20
1.146522
40
0.2634081
50
8.0545065
51
36.356114
0
ARC
8
DEFAULT_255_1_234
10
1.131788
20
1.1310174
40
0.3510261
50
359.8320645
51
8.5869982
0
ARC
8
DEFAULT_255_1_234
10
1.0942656
20
1.1262101
40
0.3885653
50
343.9829931
51
0.5571613
0
ARC
8
DEFAULT_255_1_234
10
1.1828854
20
1.1019438
40
0.2966924
50
311.6359546
51
343.7651759
0
ARC
8
DEFAULT_255_1_234
10
1.1450423
20
1.1446102
40
0.3537231
50
279.7829875
51
311.6255694
0
ARC
8
DEFAULT_255_1_234
10
1.1149199
20
1.288328
40
0.5004971
50
269.7286406
51
280.3856417
0
ARC
8
DEFAULT_255_1_234
10
1.1087272
20
1.2841996
40
0.4963778
50
256.6828919
51
270.4412052
0
ARC
8
DEFAULT_255_1_234
10
1.0748567
20
1.1457394
40
0.3538406
50
229.4223008
51
256.8556159
0
ARC
8
DEFAULT_255_1_234
10
1.033396
20
1.0990736
40
0.2914296
50
181.818294
51
229.6455059
0
ARC
8
DEFAULT_255_1_234
10
1.1373916
20
1.1121496
40
0.3959084
50
179.9755256
51
183.2323064
0
ARC
8
DEFAULT_255_1_234
10
1.1201662
20
1.1101037
40
0.2293034
50
179.4465117
51
196.2869258
0
ARC
8
DEFAULT_255_1_234
10
1.071407
20
1.0967651
40
0.1787621
50
196.5661473
51
227.705904
0
ARC
8
DEFAULT_255_1_234
10
1.0878165
20
1.1151155
40
0.2033784
50
227.7652068
51
257.8762805
0
ARC
8
DEFAULT_255_1_234
10
1.1103135
20
1.2094156
40
0.3003081
50
257.4584385
51
270.426602
0
ARC
8
DEFAULT_255_1_234
10
1.1148701
20
1.2383996
40
0.329292
50
269.5962073
51
280.8789248
0
ARC
8
DEFAULT_255_1_234
10
1.137823
20
1.1237685
40
0.2123908
50
280.6346389
51
299.8595945
0
ARC
8
DEFAULT_255_1_234
10
1.1569137
20
1.0875212
40
0.171457
50
300.3576302
51
314.5517981
0
ARC
8
DEFAULT_255_1_234
10
1.1486197
20
1.0935919
40
0.1816095
50
315.0728369
51
345.0431014
0
ARC
8
DEFAULT_255_1_234
10
1.0563011
20
1.1204841
40
0.2777492
50
344.5986631
51
357.9269593
0
ARC
8
DEFAULT_255_1_234
10
0.9667338
20
1.1266276
40
0.3674917
50
357.4748886
51
0.0231117
0
ARC
8
DEFAULT_255_1_234
10
1.0690447
20
1.1290679
40
0.2651907
50
359.5047933
51
13.4239635
0
ARC
8
DEFAULT_255_1_234
10
1.1557091
20
1.1512478
40
0.1757509
50
12.9498199
51
48.7551375
0
ARC
8
DEFAULT_255_1_234
10
1.1374825
20
1.12634
40
0.2065134
50
49.5088623
51
72.1836453
0
ARC
8
DEFAULT_255_1_234
10
1.1016977
20
1.0201291
40
0.3185836
50
71.9010081
51
84.3554254
0
ARC
8
DEFAULT_255_1_234
10
1.0855609
20
0.8840326
40
0.4556151
50
84.0193428
51
89.333121
0
LINE
8
DEFAULT_255_1_234
10
0.4522663
20
6.6530026
11
0.4522663
21
6.5317234
0
LINE
8
DEFAULT_255_1_234
10
0.4522663
20
6.5317234
11
0.0603174
21
6.5317234
0
LINE
8
DEFAULT_255_1_234
10
0.0603174
20
6.5317234
11
0.0603174
21
6.6530026
0
LINE
8
DEFAULT_255_1_234
10
0.0603174
20
6.6530026
11
0.4522663
21
6.6530026
0
LINE
8
DEFAULT_255_1_234
10
1.208856
20
7.2650211
11
1.208856
21
6.488352
0
LINE
8
DEFAULT_255_1_234
10
1.208856
20
6.488352
11
1.3710971
21
6.488352
0
LINE
8
DEFAULT_255_1_234
10
1.3710971
20
6.488352
11
1.3710971
21
6.3670728
0
LINE
8
DEFAULT_255_1_234
10
1.3710971
20
6.3670728
11
1.208856
21
6.3670728
0
LINE
8
DEFAULT_255_1_234
10
1.208856
20
6.3670728
11
1.208856
21
6.0956
0
LINE
8
DEFAULT_255_1_234
10
1.208856
20
6.0956
11
1.0594657
21
6.0956
0
LINE
8
DEFAULT_255_1_234
10
1.0594657
20
6.0956
11
1.0594657
21
6.3670728
0
LINE
8
DEFAULT_255_1_234
10
1.0594657
20
6.3670728
11
0.5269614
21
6.3670728
0
LINE
8
DEFAULT_255_1_234
10
0.5269614
20
6.3670728
11
0.5269614
21
6.4546187
0
LINE
8
DEFAULT_255_1_234
10
0.5269614
20
6.4546187
11
1.0506308
21
7.2650211
0
LINE
8
DEFAULT_255_1_234
10
1.0506308
20
7.2650211
11
1.208856
21
7.2650211
0
LINE
8
DEFAULT_255_1_234
10
1.0417958
20
7.0296912
11
0.6956279
21
6.488352
0
LINE
8
DEFAULT_255_1_234
10
0.6956279
20
6.488352
11
1.0594657
21
6.488352
0
LINE
8
DEFAULT_255_1_234
10
1.0594657
20
6.488352
11
1.0594657
21
7.0618181
0
LINE
8
DEFAULT_255_1_234
10
1.0594657
20
7.0618181
11
1.0417958
21
7.0296912
0
ENDSEC
0
EOF