0
SECTION
2
HEADER
9
$MEASUREMENT
70
1
0
ENDSEC
0
SECTION
2
TABLES
0
TABLE
2
LTYPE
0
LTYPE
72
65
70
64
2
CONTINUOUS
3
______
73
0
40
0
0
ENDTAB
0
TABLE
2
LAYER
0
LAYER
2
DEFAULT_255_1_388
70
0
62
255
6
CONTINUOUS
0
LAYER
2
DEFAULT_255_2_778
70
0
62
255
6
CONTINUOUS
0
ENDTAB
0
ENDSEC
0
SECTION
2
ENTITIES
0
LINE
8
DEFAULT_255_1_388
10
4.4964985
20
-1.0258852
11
4.4964985
21
-2.3478
0
LINE
8
DEFAULT_255_1_388
10
4.4964985
20
-2.3478
11
4.3284355
21
-2.3478
0
LINE
8
DEFAULT_255_1_388
10
4.3284355
20
-2.3478
11
4.3284355
21
-1.233705
0
LINE
8
DEFAULT_255_1_388
10
4.3284355
20
-1.233705
11
3.991406
21
-1.3574934
0
LINE
8
DEFAULT_255_1_388
10
3.991406
20
-1.3574934
11
3.991406
21
-1.2056945
0
LINE
8
DEFAULT_255_1_388
10
3.991406
20
-1.2056945
11
4.4702951
21
-1.0258852
0
LINE
8
DEFAULT_255_1_388
10
4.4702951
20
-1.0258852
11
4.4964985
21
-1.0258852
0
LINE
8
DEFAULT_255_1_388
10
13.8132318
20
-2.2113618
11
13.8132318
21
-2.3478
0
LINE
8
DEFAULT_255_1_388
10
13.8132318
20
-2.3478
11
12.9512313
21
-2.3478
0
LINE
8
DEFAULT_255_1_388
10
12.9512313
20
-2.3478
11
12.9512313
21
-2.2276259
0
LINE
8
DEFAULT_255_1_388
10
12.9512313
20
-2.2276259
11
13.4066278
21
-1.7216298
0
LINE
8
DEFAULT_255_1_388
10
13.0930909
20
-1.4198393
11
12.9259315
21
-1.4198393
0
LINE
8
DEFAULT_255_1_388
10
13.5051163
20
-1.829154
11
13.1527262
21
-2.2113618
0
LINE
8
DEFAULT_255_1_388
10
13.1527262
20
-2.2113618
11
13.8132318
21
-2.2113618
0
ARC
8
DEFAULT_255_1_388
10
11.8890337
20
-0.3796017
40
2.0258655
50
318.5132526
51
320.7829045
0
ARC
8
DEFAULT_255_1_388
10
12.4838294
20
-0.8637071
40
1.2589638
50
320.7372878
51
323.9739031
0
ARC
8
DEFAULT_255_1_388
10
12.9247226
20
-1.1831446
40
0.7145141
50
323.8962701
51
328.64194
0
ARC
8
DEFAULT_255_1_388
10
13.1549484
20
-1.3251455
40
0.4440242
50
328.8294576
51
331.7891185
0
ARC
8
DEFAULT_255_1_388
10
13.2671804
20
-1.3830626
40
0.3177517
50
331.4254512
51
352.9365785
0
ARC
8
DEFAULT_255_1_388
10
13.2824804
20
-1.386495
40
0.3021496
50
353.2257659
51
0.0166158
0
ARC
8
DEFAULT_255_1_388
10
13.3061564
20
-1.3839106
40
0.2784847
50
359.486299
51
15.9343185
0
ARC
8
DEFAULT_255_1_388
10
13.3631831
20
-1.3685731
40
0.2194403
50
16.1712913
51
43.5286088
0
ARC
8
DEFAULT_255_1_388
10
13.3718776
20
-1.3598809
40
0.2071504
50
43.4417391
51
83.1661095
0
ARC
8
DEFAULT_255_1_388
10
13.3567937
20
-1.4427684
40
0.2912888
50
82.160179
51
90.1505708
0
ARC
8
DEFAULT_255_1_388
10
13.3532418
20
-1.5031721
40
0.3517025
50
89.5460741
51
102.5418361
0
ARC
8
DEFAULT_255_1_388
10
13.3259138
20
-1.3872067
40
0.2325748
50
102.1738499
51
129.206123
0
ARC
8
DEFAULT_255_1_388
10
13.3170592
20
-1.3732336
40
0.2161591
50
129.72865
51
135.753947
0
ARC
8
DEFAULT_255_1_388
10
13.3307074
20
-1.3841272
40
0.2335433
50
136.1757367
51
166.3673339
0
ARC
8
DEFAULT_255_1_388
10
13.4439762
20
-1.4144852
40
0.3507873
50
165.9090694
51
178.8684636
0
ARC
8
DEFAULT_255_1_388
10
13.5415534
20
-1.4197737
40
0.4484624
50
178.4391136
51
180.0083808
0
ARC
8
DEFAULT_255_1_388
10
13.3836235
20
-1.4153803
40
0.4577138
50
163.2878482
51
180.5581842
0
ARC
8
DEFAULT_255_1_388
10
13.2934276
20
-1.3905607
40
0.3641968
50
133.4540601
51
162.947111
0
ARC
8
DEFAULT_255_1_388
10
13.3135158
20
-1.4119211
40
0.3935189
50
100.7869829
51
133.4382499
0
ARC
8
DEFAULT_255_1_388
10
13.3526403
20
-1.5861601
40
0.5720313
50
89.660664
51
101.3702276
0
ARC
8
DEFAULT_255_1_388
10
13.3601012
20
-1.5792737
40
0.5651495
50
78.2172678
51
90.412935
0
ARC
8
DEFAULT_255_1_388
10
13.4000478
20
-1.3965489
40
0.378122
50
55.9269121
51
78.4888449
0
ARC
8
DEFAULT_255_1_388
10
13.4221193
20
-1.3584813
40
0.3342379
50
47.929771
51
55.4049217
0
ARC
8
DEFAULT_255_1_388
10
13.4335723
20
-1.3468382
40
0.3179217
50
4.334829
51
48.0560205
0
ARC
8
DEFAULT_255_1_388
10
13.3103525
20
-1.3659513
40
0.442341
50
359.9251713
51
5.5971671
0
ARC
8
DEFAULT_255_1_388
10
13.358568
20
-1.3596272
40
0.3941854
50
337.8914027
51
358.9967534
0
ARC
8
DEFAULT_255_1_388
10
13.053325
20
-1.2418705
40
0.7213271
50
326.9132501
51
338.3508308
0
ARC
8
DEFAULT_255_1_388
10
12.6049362
20
-0.9544895
40
1.2538973
50
319.6471833
51
327.0959558
0
ARC
8
DEFAULT_255_1_388
10
12.173602
20
-0.598695
40
1.8129975
50
317.2588228
51
319.9045804
0
LINE
8
DEFAULT_255_1_388
10
13.1942901
20
0.9004775
11
13.1942901
21
1.0369157
0
LINE
8
DEFAULT_255_1_388
10
13.1942901
20
1.0369157
11
13.3198856
21
1.0369157
0
LINE
8
DEFAULT_255_1_388
10
13.1057408
20
1.2682282
11
12.9385814
21
1.2682282
0
LINE
8
DEFAULT_255_1_388
10
12.9268351
20
0.6447687
11
13.094898
21
0.6447687
0
LINE
8
DEFAULT_255_1_388
10
13.3198856
20
0.9004775
11
13.1942901
21
0.9004775
0
ARC
8
DEFAULT_255_1_388
10
13.3166082
20
1.4185922
40
0.3816905
50
270.491971
51
281.8953028
0
ARC
8
DEFAULT_255_1_388
10
13.3437509
20
1.2946199
40
0.2547877
50
281.6690378
51
301.2943765
0
ARC
8
DEFAULT_255_1_388
10
13.3628961
20
1.2595926
40
0.2149197
50
301.7834992
51
311.754567
0
ARC
8
DEFAULT_255_1_388
10
13.3732002
20
1.248165
40
0.1995326
50
311.7325027
51
354.2803031
0
ARC
8
DEFAULT_255_1_388
10
13.2914418
20
1.262228
40
0.2823461
50
353.0941646
51
0.1174696
0
ARC
8
DEFAULT_255_1_388
10
13.2395976
20
1.2675874
40
0.3342238
50
359.1804452
51
15.0452323
0
ARC
8
DEFAULT_255_1_388
10
13.3910034
20
1.3117546
40
0.1765747
50
13.957816
51
77.6713812
0
ARC
8
DEFAULT_255_1_388
10
13.347527
20
1.1559464
40
0.3381982
50
76.111571
51
90.7028736
0
ARC
8
DEFAULT_255_1_388
10
13.3408682
20
1.186725
40
0.3074046
50
89.5321574
51
103.5319393
0
ARC
8
DEFAULT_255_1_388
10
13.3183066
20
1.2766443
40
0.2147041
50
103.2930114
51
133.5619756
0
ARC
8
DEFAULT_255_1_388
10
13.3133007
20
1.2833351
40
0.2064084
50
133.8349761
51
173.5343225
0
ARC
8
DEFAULT_255_1_388
10
13.3946665
20
1.2689144
40
0.2889266
50
172.5097183
51
180.1360699
0
ARC
8
DEFAULT_255_1_388
10
13.2876429
20
1.272788
40
0.3490913
50
155.3483706
51
180.7484035
0
ARC
8
DEFAULT_255_1_388
10
13.2821404
20
1.2695519
40
0.3454798
50
131.5745177
51
154.4799474
0
ARC
8
DEFAULT_255_1_388
10
13.3173687
20
1.2339422
40
0.3955058
50
96.9874487
51
131.9690874
0
ARC
8
DEFAULT_255_1_388
10
13.342058
20
1.0938407
40
0.537622
50
89.8592909
51
97.7827481
0
ARC
8
DEFAULT_255_1_388
10
13.3474689
20
1.064336
40
0.5671399
50
78.3654493
51
90.4132586
0
ARC
8
DEFAULT_255_1_388
10
13.387733
20
1.2509918
40
0.3762034
50
56.6229818
51
78.6387103
0
ARC
8
DEFAULT_255_1_388
10
13.4119159
20
1.2932846
40
0.3275964
50
47.0254604
51
56.085558
0
ARC
8
DEFAULT_255_1_388
10
13.414141
20
1.2977189
40
0.3228382
50
10.9207523
51
46.777927
0
ARC
8
DEFAULT_255_1_388
10
13.2607004
20
1.2622401
40
0.4802559
50
359.6364235
51
11.6087615
0
ARC
8
DEFAULT_255_1_388
10
13.467117
20
1.2605404
40
0.273833
50
332.3549969
51
359.7179765
0
ARC
8
DEFAULT_255_1_388
10
13.393957
20
1.2952285
40
0.3547505
50
325.2332381
51
332.8746682
0
ARC
8
DEFAULT_255_1_388
10
13.4111153
20
1.2832763
40
0.3338396
50
292.9803892
51
325.2391113
0
ARC
8
DEFAULT_255_1_388
10
13.3800349
20
1.3437679
40
0.4016959
50
292.542178
51
293.6931461
0
ARC
8
DEFAULT_255_1_388
10
13.4243921
20
0.6172036
40
0.372079
50
57.643292
51
72.8626085
0
ARC
8
DEFAULT_255_1_388
10
13.4642755
20
0.6818273
40
0.2961455
50
36.7246661
51
57.4701329
0
ARC
8
DEFAULT_255_1_388
10
13.4629912
20
0.683247
40
0.2963321
50
8.054535
51
36.3561529
0
ARC
8
DEFAULT_255_1_388
10
13.3659585
20
0.6658073
40
0.3948682
50
359.8316595
51
8.5873361
0
ARC
8
DEFAULT_255_1_388
10
13.3237059
20
0.660397
40
0.4371398
50
343.9831631
51
0.557075
0
ARC
8
DEFAULT_255_1_388
10
13.4234108
20
0.6330963
40
0.3337749
50
311.6358204
51
343.7652116
0
ARC
8
DEFAULT_255_1_388
10
13.3808362
20
0.6810955
40
0.3979351
50
279.7829743
51
311.625622
0
ARC
8
DEFAULT_255_1_388
10
13.3469497
20
0.8427642
40
0.5630417
50
269.7285092
51
280.3857694
0
ARC
8
DEFAULT_255_1_388
10
13.339981
20
0.8381241
40
0.5584119
50
256.6827433
51
270.4412869
0
ARC
8
DEFAULT_255_1_388
10
13.3018797
20
0.6823698
40
0.3980715
50
229.4223821
51
256.8554507
0
ARC
8
DEFAULT_255_1_388
10
13.255235
20
0.6298683
40
0.3278564
50
181.8183354
51
229.6455015
0
ARC
8
DEFAULT_255_1_388
10
13.372196
20
0.6445825
40
0.4453611
50
179.9760419
51
183.2330638
0
ARC
8
DEFAULT_255_1_388
10
13.3528512
20
0.6422781
40
0.2579652
50
179.4467996
51
196.2871626
0
ARC
8
DEFAULT_255_1_388
10
13.2979966
20
0.6272709
40
0.2011057
50
196.5661293
51
227.7059371
0
ARC
8
DEFAULT_255_1_388
10
13.3164573
20
0.6479155
40
0.2287994
50
227.7653015
51
257.8763321
0
ARC
8
DEFAULT_255_1_388
10
13.3417656
20
0.7539961
40
0.3378385
50
257.4583525
51
270.4267406
0
ARC
8
DEFAULT_255_1_388
10
13.3468906
20
0.786623
40
0.3704652
50
269.5965319
51
280.8788143
0
ARC
8
DEFAULT_255_1_388
10
13.3727134
20
0.6576529
40
0.2389415
50
280.6347277
51
299.8594068
0
ARC
8
DEFAULT_255_1_388
10
13.3941903
20
0.6168736
40
0.19289
50
300.3575552
51
314.5515667
0
ARC
8
DEFAULT_255_1_388
10
13.3848579
20
0.6237025
40
0.204312
50
315.0730962
51
345.0429362
0
ARC
8
DEFAULT_255_1_388
10
13.2810087
20
0.6539539
40
0.31246
50
344.598526
51
357.9270698
0
ARC
8
DEFAULT_255_1_388
10
13.1800391
20
0.6608705
40
0.4136265
50
357.4755098
51
0.0224936
0
ARC
8
DEFAULT_255_1_388
10
13.2953269
20
0.6636099
40
0.2983498
50
359.5051035
51
13.4236939
0
ARC
8
DEFAULT_255_1_388
10
13.3928359
20
0.6885637
40
0.1977186
50
12.9497905
51
48.7550905
0
ARC
8
DEFAULT_255_1_388
10
13.3723281
20
0.6605373
40
0.2323321
50
49.509109
51
72.1832965
0
ARC
8
DEFAULT_255_1_388
10
13.3320749
20
0.5410632
40
0.358397
50
71.9008458
51
84.3555134
0
ARC
8
DEFAULT_255_1_388
10
13.3139144
20
0.3878712
40
0.512641
50
84.019632
51
89.3326067
0
LINE
8
DEFAULT_255_2_778
10
7.8052
20
-3.2955417
11
8.0698
21
-2.6340417
0
LINE
8
DEFAULT_255_2_778
10
8.0698
20
-2.6340417
11
8.5989
21
-3.9569417
0
LINE
8
DEFAULT_255_2_778
10
8.5989
20
-3.9569417
11
9.1281
21
-2.6340417
0
LINE
8
DEFAULT_255_2_778
10
9.1281
20
-2.6340417
11
9.6573
21
-3.9569417
0
LINE
8
DEFAULT_255_2_778
10
9.6573
20
-3.9569417
11
10.1864
21
-2.6340417
0
LINE
8
DEFAULT_255_2_778
10
10.1864
20
-2.6340417
11
10.7156
21
-3.9569417
0
LINE
8
DEFAULT_255_2_778
10
10.7156
20
-3.9569417
11
10.9802
21
-3.2955417
0
LINE
8
DEFAULT_255_2_778
10
16.0073084
20
-0.6496333
11
9.3927084
21
-0.6496333
0
LINE
8
DEFAULT_255_2_778
10
9.3927084
20
-0.6496333
11
9.3927084
21
-1.7079333
0
LINE
8
DEFAULT_255_2_778
10
9.1281167
20
-1.7080511
11
9.3927167
21
-2.5507511
0
LINE
8
DEFAULT_255_2_778
10
9.3927167
20
-2.5507511
11
9.6573167
21
-1.7080511
0
LINE
8
DEFAULT_255_2_778
10
9.6573167
20
-1.7080511
11
9.1281167
21
-1.7080511
0
LINE
8
DEFAULT_255_2_778
10
10.9801584
20
-3.2955
11
16.0072584
21
-3.2955
0
LINE
8
DEFAULT_255_2_778
10
7.8052584
20
-3.2955
11
2.7781584
21
-3.2955
0
ENDSEC
0
EOF