0
SECTION
2
HEADER
9
$MEASUREMENT
70
1
0
ENDSEC
0
SECTION
2
TABLES
0
TABLE
2
LTYPE
0
LTYPE
72
65
70
64
2
CONTINUOUS
3
______
73
0
40
0
0
ENDTAB
0
TABLE
2
LAYER
0
LAYER
2
DEFAULT_255_1_234
70
0
62
255
6
CONTINUOUS
0
LAYER
2
DEFAULT_255_2_778
70
0
62
255
6
CONTINUOUS
0
ENDTAB
0
ENDSEC
0
SECTION
2
ENTITIES
0
LINE
8
DEFAULT_255_1_234
10
4.4810137
20
-0.9976567
11
4.4810137
21
-2.1727
0
LINE
8
DEFAULT_255_1_234
10
4.4810137
20
-2.1727
11
4.3316234
21
-2.1727
0
LINE
8
DEFAULT_255_1_234
10
4.3316234
20
-2.1727
11
4.3316234
21
-1.1823867
0
LINE
8
DEFAULT_255_1_234
10
4.3316234
20
-1.1823867
11
4.0320396
21
-1.2924215
0
LINE
8
DEFAULT_255_1_234
10
4.0320396
20
-1.2924215
11
4.0320396
21
-1.1574883
0
LINE
8
DEFAULT_255_1_234
10
4.0320396
20
-1.1574883
11
4.4577217
21
-0.9976567
0
LINE
8
DEFAULT_255_1_234
10
4.4577217
20
-0.9976567
11
4.4810137
21
-0.9976567
0
LINE
8
DEFAULT_255_1_234
10
13.7629119
20
-2.0514208
11
13.7629119
21
-2.1727
0
LINE
8
DEFAULT_255_1_234
10
13.7629119
20
-2.1727
11
12.996684
21
-2.1727
0
LINE
8
DEFAULT_255_1_234
10
12.996684
20
-2.1727
11
12.996684
21
-2.0658779
0
LINE
8
DEFAULT_255_1_234
10
12.996684
20
-2.0658779
11
13.4014836
21
-1.6161005
0
LINE
8
DEFAULT_255_1_234
10
13.1227823
20
-1.3478405
11
12.9741952
21
-1.3478405
0
LINE
8
DEFAULT_255_1_234
10
13.4890296
20
-1.7116782
11
13.1757918
21
-2.0514208
0
LINE
8
DEFAULT_255_1_234
10
13.1757918
20
-2.0514208
11
13.7629119
21
-2.0514208
0
ARC
8
DEFAULT_255_1_234
10
12.052467
20
-0.4231473
40
1.8008286
50
318.5132453
51
320.7828378
0
ARC
8
DEFAULT_255_1_234
10
12.5811644
20
-0.8534574
40
1.1191493
50
320.7372736
51
323.9737074
0
ARC
8
DEFAULT_255_1_234
10
12.9731501
20
-1.1374639
40
0.6350923
50
323.8961724
51
328.6421089
0
ARC
8
DEFAULT_255_1_234
10
13.1778096
20
-1.2636969
40
0.3946393
50
328.8299013
51
331.789948
0
ARC
8
DEFAULT_255_1_234
10
13.2775274
20
-1.3151491
40
0.2824501
50
331.4255242
51
352.9364833
0
ARC
8
DEFAULT_255_1_234
10
13.2911775
20
-1.3182024
40
0.2685315
50
353.2248685
51
0.0169286
0
ARC
8
DEFAULT_255_1_234
10
13.3121652
20
-1.315905
40
0.2475536
50
359.4866256
51
15.9339782
0
ARC
8
DEFAULT_255_1_234
10
13.3628637
20
-1.3022714
40
0.1950618
50
16.1714718
51
43.5284424
0
ARC
8
DEFAULT_255_1_234
10
13.3705946
20
-1.2945427
40
0.184134
50
43.4415429
51
83.1661404
0
ARC
8
DEFAULT_255_1_234
10
13.3571864
20
-1.3682229
40
0.258926
50
82.160215
51
90.1505798
0
ARC
8
DEFAULT_255_1_234
10
13.3540291
20
-1.4219135
40
0.3126255
50
89.5460705
51
102.5418777
0
ARC
8
DEFAULT_255_1_234
10
13.3297377
20
-1.3188335
40
0.2067346
50
102.1739365
51
129.2061916
0
ARC
8
DEFAULT_255_1_234
10
13.3218449
20
-1.3063906
40
0.1921118
50
129.7279328
51
135.7542026
0
ARC
8
DEFAULT_255_1_234
10
13.3339977
20
-1.3160955
40
0.2075944
50
136.175737
51
166.3674722
0
ARC
8
DEFAULT_255_1_234
10
13.4346896
20
-1.3430818
40
0.3118201
50
165.9092917
51
178.8683903
0
ARC
8
DEFAULT_255_1_234
10
13.5211757
20
-1.3477821
40
0.3983935
50
178.438168
51
180.0083905
0
ARC
8
DEFAULT_255_1_234
10
13.3810359
20
-1.3438769
40
0.4068601
50
163.2878735
51
180.5581814
0
ARC
8
DEFAULT_255_1_234
10
13.3008621
20
-1.321816
40
0.3237344
50
133.454115
51
162.9470031
0
ARC
8
DEFAULT_255_1_234
10
13.3187162
20
-1.3408
40
0.349795
50
100.7869394
51
133.4384016
0
ARC
8
DEFAULT_255_1_234
10
13.3534934
20
-1.4956681
40
0.5084616
50
89.6605301
51
101.3704185
0
ARC
8
DEFAULT_255_1_234
10
13.3601273
20
-1.4895504
40
0.502348
50
78.2171172
51
90.4130393
0
ARC
8
DEFAULT_255_1_234
10
13.3956351
20
-1.3271363
40
0.3361092
50
55.9268222
51
78.4888551
0
ARC
8
DEFAULT_255_1_234
10
13.4152791
20
-1.2932676
40
0.2970617
50
47.9292255
51
55.4054003
0
ARC
8
DEFAULT_255_1_234
10
13.4254352
20
-1.2829498
40
0.2825983
50
4.3347696
51
48.0560701
0
ARC
8
DEFAULT_255_1_234
10
13.3158745
20
-1.2999399
40
0.393225
50
359.925209
51
5.5967654
0
ARC
8
DEFAULT_255_1_234
10
13.3587637
20
-1.2943184
40
0.3503892
50
337.8914096
51
358.9967724
0
ARC
8
DEFAULT_255_1_234
10
13.0874049
20
-1.1896294
40
0.6412172
50
326.9135351
51
338.3505194
0
ARC
8
DEFAULT_255_1_234
10
12.6888353
20
-0.9341716
40
1.1146189
50
319.6472867
51
327.095818
0
ARC
8
DEFAULT_255_1_234
10
12.3055356
20
-0.618
40
1.6114559
50
317.2586784
51
319.9046139
0
LINE
8
DEFAULT_255_1_234
10
6.8627378
20
0.4292169
11
6.8627378
21
0.5504962
0
LINE
8
DEFAULT_255_1_234
10
6.8627378
20
0.5504962
11
6.974379
21
0.5504962
0
LINE
8
DEFAULT_255_1_234
10
6.7840268
20
0.7561087
11
6.6354396
21
0.7561087
0
LINE
8
DEFAULT_255_1_234
10
6.6249983
20
0.2019188
11
6.7743887
21
0.2019188
0
LINE
8
DEFAULT_255_1_234
10
6.974379
20
0.4292169
11
6.8627378
21
0.4292169
0
ARC
8
DEFAULT_255_1_234
10
6.9714656
20
0.8897713
40
0.3392876
50
270.4919872
51
281.8951556
0
ARC
8
DEFAULT_255_1_234
10
6.9955918
20
0.7795702
40
0.2264817
50
281.6691735
51
301.2943132
0
ARC
8
DEFAULT_255_1_234
10
7.0126128
20
0.7484304
40
0.1910381
50
301.7833094
51
311.7545298
0
ARC
8
DEFAULT_255_1_234
10
7.0217704
20
0.7382748
40
0.1773635
50
311.7323931
51
354.2802411
0
ARC
8
DEFAULT_255_1_234
10
6.9491329
20
0.7507722
40
0.2509385
50
353.0937916
51
0.1181479
0
ARC
8
DEFAULT_255_1_234
10
6.9030114
20
0.7555386
40
0.2970898
50
359.1805295
51
15.0453146
0
ARC
8
DEFAULT_255_1_234
10
7.0375951
20
0.7947992
40
0.1569564
50
13.9577229
51
77.6713066
0
ARC
8
DEFAULT_255_1_234
10
6.998948
20
0.6562949
40
0.3006298
50
76.1116566
51
90.7026153
0
ARC
8
DEFAULT_255_1_234
10
6.9930318
20
0.6836545
40
0.2732568
50
89.5324876
51
103.531937
0
ARC
8
DEFAULT_255_1_234
10
6.9729762
20
0.7635884
40
0.1908508
50
103.2931773
51
133.5619022
0
ARC
8
DEFAULT_255_1_234
10
6.9685251
20
0.7695375
40
0.1834746
50
133.8349307
51
173.5344437
0
ARC
8
DEFAULT_255_1_234
10
7.0408294
20
0.7567213
40
0.2568033
50
172.5096846
51
180.1366907
0
ARC
8
DEFAULT_255_1_234
10
6.9457188
20
0.7601622
40
0.3103056
50
155.3484492
51
180.7484736
0
ARC
8
DEFAULT_255_1_234
10
6.9408277
20
0.7572846
40
0.3070957
50
131.5744599
51
154.4798489
0
ARC
8
DEFAULT_255_1_234
10
6.9721424
20
0.725631
40
0.3515643
50
96.9875458
51
131.9690667
0
ARC
8
DEFAULT_255_1_234
10
6.9940904
20
0.6010636
40
0.4779224
50
89.8596053
51
97.7825159
0
ARC
8
DEFAULT_255_1_234
10
6.9988967
20
0.5748616
40
0.5041361
50
78.3655447
51
90.4131539
0
ARC
8
DEFAULT_255_1_234
10
7.0346885
20
0.7407887
40
0.3344039
50
56.6229102
51
78.638727
0
ARC
8
DEFAULT_255_1_234
10
7.0561829
20
0.7783805
40
0.2912001
50
47.0253525
51
56.0854072
0
ARC
8
DEFAULT_255_1_234
10
7.0581609
20
0.7823223
40
0.2869704
50
10.9208013
51
46.7778124
0
ARC
8
DEFAULT_255_1_234
10
6.9217675
20
0.7507857
40
0.426899
50
359.6364486
51
11.6087304
0
ARC
8
DEFAULT_255_1_234
10
7.1052519
20
0.7492752
40
0.243409
50
332.3549906
51
359.7179418
0
ARC
8
DEFAULT_255_1_234
10
7.0402121
20
0.7801142
40
0.3153459
50
325.2333722
51
332.8745602
0
ARC
8
DEFAULT_255_1_234
10
7.0554744
20
0.7694828
40
0.2967456
50
292.9802137
51
325.2392345
0
ARC
8
DEFAULT_255_1_234
10
7.0280118
20
0.8228863
40
0.3566604
50
292.5402179
51
293.6924929
0
ARC
8
DEFAULT_255_1_234
10
7.0672714
20
0.1774091
40
0.3307468
50
57.6435486
51
72.8625112
0
ARC
8
DEFAULT_255_1_234
10
7.1027214
20
0.2348549
40
0.2632492
50
36.7248896
51
57.4697979
0
ARC
8
DEFAULT_255_1_234
10
7.1015847
20
0.236122
40
0.2634081
50
8.0545065
51
36.356114
0
ARC
8
DEFAULT_255_1_234
10
7.0153032
20
0.2206174
40
0.3510261
50
359.8320645
51
8.5869982
0
ARC
8
DEFAULT_255_1_234
10
6.9777808
20
0.2158101
40
0.3885653
50
343.9829931
51
0.5571613
0
ARC
8
DEFAULT_255_1_234
10
7.0664005
20
0.1915438
40
0.2966924
50
311.6359546
51
343.7651759
0
ARC
8
DEFAULT_255_1_234
10
7.0285574
20
0.2342102
40
0.3537231
50
279.7829875
51
311.6255694
0
ARC
8
DEFAULT_255_1_234
10
6.9984351
20
0.377928
40
0.5004971
50
269.7286406
51
280.3856417
0
ARC
8
DEFAULT_255_1_234
10
6.9922423
20
0.3737996
40
0.4963778
50
256.6828919
51
270.4412052
0
ARC
8
DEFAULT_255_1_234
10
6.9583719
20
0.2353394
40
0.3538406
50
229.4223008
51
256.8556159
0
ARC
8
DEFAULT_255_1_234
10
6.9169112
20
0.1886736
40
0.2914296
50
181.818294
51
229.6455059
0
ARC
8
DEFAULT_255_1_234
10
7.0209068
20
0.2017496
40
0.3959084
50
179.9755256
51
183.2323064
0
ARC
8
DEFAULT_255_1_234
10
7.0036814
20
0.1997037
40
0.2293034
50
179.4465117
51
196.2869258
0
ARC
8
DEFAULT_255_1_234
10
6.9549222
20
0.1863651
40
0.1787621
50
196.5661473
51
227.705904
0
ARC
8
DEFAULT_255_1_234
10
6.9713317
20
0.2047155
40
0.2033784
50
227.7652068
51
257.8762805
0
ARC
8
DEFAULT_255_1_234
10
6.9938287
20
0.2990156
40
0.3003081
50
257.4584385
51
270.426602
0
ARC
8
DEFAULT_255_1_234
10
6.9983853
20
0.3279996
40
0.329292
50
269.5962073
51
280.8789248
0
ARC
8
DEFAULT_255_1_234
10
7.0213382
20
0.2133685
40
0.2123908
50
280.6346389
51
299.8595945
0
ARC
8
DEFAULT_255_1_234
10
7.0404289
20
0.1771212
40
0.171457
50
300.3576302
51
314.5517981
0
ARC
8
DEFAULT_255_1_234
10
7.0321349
20
0.1831919
40
0.1816095
50
315.0728369
51
345.0431014
0
ARC
8
DEFAULT_255_1_234
10
6.9398163
20
0.2100841
40
0.2777492
50
344.5986631
51
357.9269593
0
ARC
8
DEFAULT_255_1_234
10
6.8502489
20
0.2162276
40
0.3674917
50
357.4748886
51
0.0231117
0
ARC
8
DEFAULT_255_1_234
10
6.9525599
20
0.2186679
40
0.2651907
50
359.5047933
51
13.4239635
0
ARC
8
DEFAULT_255_1_234
10
7.0392242
20
0.2408478
40
0.1757509
50
12.9498199
51
48.7551375
0
ARC
8
DEFAULT_255_1_234
10
7.0209976
20
0.21594
40
0.2065134
50
49.5088623
51
72.1836453
0
ARC
8
DEFAULT_255_1_234
10
6.9852129
20
0.1097291
40
0.3185836
50
71.9010081
51
84.3554254
0
ARC
8
DEFAULT_255_1_234
10
6.9690761
20
-0.0263674
40
0.4556151
50
84.0193428
51
89.333121
0
LINE
8
DEFAULT_255_1_234
10
10.7664628
20
1.0629211
11
10.7664628
21
0.286252
0
LINE
8
DEFAULT_255_1_234
10
10.7664628
20
0.286252
11
10.9287039
21
0.286252
0
LINE
8
DEFAULT_255_1_234
10
10.9287039
20
0.286252
11
10.9287039
21
0.1649728
0
LINE
8
DEFAULT_255_1_234
10
10.9287039
20
0.1649728
11
10.7664628
21
0.1649728
0
LINE
8
DEFAULT_255_1_234
10
10.7664628
20
0.1649728
11
10.7664628
21
-0.1065
0
LINE
8
DEFAULT_255_1_234
10
10.7664628
20
-0.1065
11
10.6170725
21
-0.1065
0
LINE
8
DEFAULT_255_1_234
10
10.6170725
20
-0.1065
11
10.6170725
21
0.1649728
0
LINE
8
DEFAULT_255_1_234
10
10.6170725
20
0.1649728
11
10.0845682
21
0.1649728
0
LINE
8
DEFAULT_255_1_234
10
10.0845682
20
0.1649728
11
10.0845682
21
0.2525187
0
LINE
8
DEFAULT_255_1_234
10
10.0845682
20
0.2525187
11
10.6082375
21
1.0629211
0
LINE
8
DEFAULT_255_1_234
10
10.6082375
20
1.0629211
11
10.7664628
21
1.0629211
0
LINE
8
DEFAULT_255_1_234
10
10.5994026
20
0.8275912
11
10.2532347
21
0.286252
0
LINE
8
DEFAULT_255_1_234
10
10.2532347
20
0.286252
11
10.6170725
21
0.286252
0
LINE
8
DEFAULT_255_1_234
10
10.6170725
20
0.286252
11
10.6170725
21
0.8597181
0
LINE
8
DEFAULT_255_1_234
10
10.6170725
20
0.8597181
11
10.5994026
21
0.8275912
0
LINE
8
DEFAULT_255_2_778
10
13.3615
20
-2.4473959
11
13.3615
21
2.1828041
0
LINE
8
DEFAULT_255_2_778
10
5.424
20
-2.4473959
11
5.424
21
2.1828041
0
LINE
8
DEFAULT_255_2_778
10
6.7468667
20
-3.1089417
11
7.0114667
21
-2.4474417
0
LINE
8
DEFAULT_255_2_778
10
7.0114667
20
-2.4474417
11
7.5405667
21
-3.7703417
0
LINE
8
DEFAULT_255_2_778
10
7.5405667
20
-3.7703417
11
8.0697667
21
-2.4474417
0
LINE
8
DEFAULT_255_2_778
10
8.0697667
20
-2.4474417
11
8.5989667
21
-3.7703417
0
LINE
8
DEFAULT_255_2_778
10
8.5989667
20
-3.7703417
11
9.1280667
21
-2.4474417
0
LINE
8
DEFAULT_255_2_778
10
9.1280667
20
-2.4474417
11
9.6572667
21
-3.7703417
0
LINE
8
DEFAULT_255_2_778
10
9.6572667
20
-3.7703417
11
10.1864667
21
-2.4474417
0
LINE
8
DEFAULT_255_2_778
10
10.1864667
20
-2.4474417
11
10.7155667
21
-3.7703417
0
LINE
8
DEFAULT_255_2_778
10
10.7155667
20
-3.7703417
11
11.2447667
21
-2.4474417
0
LINE
8
DEFAULT_255_2_778
10
11.2447667
20
-2.4474417
11
11.7739667
21
-3.7703417
0
LINE
8
DEFAULT_255_2_778
10
11.7739667
20
-3.7703417
11
12.0385667
21
-3.1089417
0
LINE
8
DEFAULT_255_2_778
10
12.0385251
20
-3.1089
11
16.0072251
21
-3.1089
0
LINE
8
DEFAULT_255_2_778
10
6.7468251
20
-3.1089
11
2.7781251
21
-3.1089
0
ENDSEC
0
EOF