0
SECTION
2
HEADER
9
$MEASUREMENT
70
1
0
ENDSEC
0
SECTION
2
TABLES
0
TABLE
2
LTYPE
0
LTYPE
72
65
70
64
2
CONTINUOUS
3
______
73
0
40
0
0
ENDTAB
0
TABLE
2
LAYER
0
LAYER
2
DEFAULT_255_1_234
70
0
62
255
6
CONTINUOUS
0
LAYER
2
DEFAULT_255_2_778
70
0
62
255
6
CONTINUOUS
0
ENDTAB
0
ENDSEC
0
SECTION
2
ENTITIES
0
LINE
8
DEFAULT_255_1_234
10
6.0190137
20
9.9155433
11
6.0190137
21
8.7405
0
LINE
8
DEFAULT_255_1_234
10
6.0190137
20
8.7405
11
5.8696234
21
8.7405
0
LINE
8
DEFAULT_255_1_234
10
5.8696234
20
8.7405
11
5.8696234
21
9.7308133
0
LINE
8
DEFAULT_255_1_234
10
5.8696234
20
9.7308133
11
5.5700396
21
9.6207785
0
LINE
8
DEFAULT_255_1_234
10
5.5700396
20
9.6207785
11
5.5700396
21
9.7557117
0
LINE
8
DEFAULT_255_1_234
10
5.5700396
20
9.7557117
11
5.9957217
21
9.9155433
0
LINE
8
DEFAULT_255_1_234
10
5.9957217
20
9.9155433
11
6.0190137
21
9.9155433
0
LINE
8
DEFAULT_255_1_234
10
6.2886119
20
-0.9784208
11
6.2886119
21
-1.0997
0
LINE
8
DEFAULT_255_1_234
10
6.2886119
20
-1.0997
11
5.522384
21
-1.0997
0
LINE
8
DEFAULT_255_1_234
10
5.522384
20
-1.0997
11
5.522384
21
-0.9928779
0
LINE
8
DEFAULT_255_1_234
10
5.522384
20
-0.9928779
11
5.9271836
21
-0.5431005
0
LINE
8
DEFAULT_255_1_234
10
5.6484823
20
-0.2748405
11
5.4998952
21
-0.2748405
0
LINE
8
DEFAULT_255_1_234
10
6.0147296
20
-0.6386782
11
5.7014918
21
-0.9784208
0
LINE
8
DEFAULT_255_1_234
10
5.7014918
20
-0.9784208
11
6.2886119
21
-0.9784208
0
ARC
8
DEFAULT_255_1_234
10
4.578167
20
0.6498527
40
1.8008286
50
318.5132453
51
320.7828378
0
ARC
8
DEFAULT_255_1_234
10
5.1068644
20
0.2195426
40
1.1191493
50
320.7372736
51
323.9737074
0
ARC
8
DEFAULT_255_1_234
10
5.4988501
20
-0.0644639
40
0.6350923
50
323.8961724
51
328.6421089
0
ARC
8
DEFAULT_255_1_234
10
5.7035096
20
-0.1906969
40
0.3946393
50
328.8299013
51
331.789948
0
ARC
8
DEFAULT_255_1_234
10
5.8032274
20
-0.2421491
40
0.2824501
50
331.4255242
51
352.9364833
0
ARC
8
DEFAULT_255_1_234
10
5.8168775
20
-0.2452024
40
0.2685315
50
353.2248685
51
0.0169286
0
ARC
8
DEFAULT_255_1_234
10
5.8378652
20
-0.242905
40
0.2475536
50
359.4866256
51
15.9339782
0
ARC
8
DEFAULT_255_1_234
10
5.8885637
20
-0.2292714
40
0.1950618
50
16.1714718
51
43.5284424
0
ARC
8
DEFAULT_255_1_234
10
5.8962946
20
-0.2215427
40
0.184134
50
43.4415429
51
83.1661404
0
ARC
8
DEFAULT_255_1_234
10
5.8828864
20
-0.2952229
40
0.258926
50
82.160215
51
90.1505798
0
ARC
8
DEFAULT_255_1_234
10
5.8797291
20
-0.3489135
40
0.3126255
50
89.5460705
51
102.5418777
0
ARC
8
DEFAULT_255_1_234
10
5.8554377
20
-0.2458335
40
0.2067346
50
102.1739365
51
129.2061916
0
ARC
8
DEFAULT_255_1_234
10
5.8475449
20
-0.2333906
40
0.1921118
50
129.7279328
51
135.7542026
0
ARC
8
DEFAULT_255_1_234
10
5.8596977
20
-0.2430955
40
0.2075944
50
136.175737
51
166.3674722
0
ARC
8
DEFAULT_255_1_234
10
5.9603896
20
-0.2700818
40
0.3118201
50
165.9092917
51
178.8683903
0
ARC
8
DEFAULT_255_1_234
10
6.0468757
20
-0.2747821
40
0.3983935
50
178.438168
51
180.0083905
0
ARC
8
DEFAULT_255_1_234
10
5.9067359
20
-0.2708769
40
0.4068601
50
163.2878735
51
180.5581814
0
ARC
8
DEFAULT_255_1_234
10
5.8265621
20
-0.248816
40
0.3237344
50
133.454115
51
162.9470031
0
ARC
8
DEFAULT_255_1_234
10
5.8444162
20
-0.2678
40
0.349795
50
100.7869394
51
133.4384016
0
ARC
8
DEFAULT_255_1_234
10
5.8791934
20
-0.4226681
40
0.5084616
50
89.6605301
51
101.3704185
0
ARC
8
DEFAULT_255_1_234
10
5.8858273
20
-0.4165504
40
0.502348
50
78.2171172
51
90.4130393
0
ARC
8
DEFAULT_255_1_234
10
5.9213351
20
-0.2541363
40
0.3361092
50
55.9268222
51
78.4888551
0
ARC
8
DEFAULT_255_1_234
10
5.9409791
20
-0.2202676
40
0.2970617
50
47.9292255
51
55.4054003
0
ARC
8
DEFAULT_255_1_234
10
5.9511352
20
-0.2099498
40
0.2825983
50
4.3347696
51
48.0560701
0
ARC
8
DEFAULT_255_1_234
10
5.8415745
20
-0.2269399
40
0.393225
50
359.925209
51
5.5967654
0
ARC
8
DEFAULT_255_1_234
10
5.8844637
20
-0.2213184
40
0.3503892
50
337.8914096
51
358.9967724
0
ARC
8
DEFAULT_255_1_234
10
5.6131049
20
-0.1166294
40
0.6412172
50
326.9135351
51
338.3505194
0
ARC
8
DEFAULT_255_1_234
10
5.2145353
20
0.1388284
40
1.1146189
50
319.6472867
51
327.095818
0
ARC
8
DEFAULT_255_1_234
10
4.8312356
20
0.455
40
1.6114559
50
317.2586784
51
319.9046139
0
ARC
8
DEFAULT_255_2_778
10
8.5514065
20
4.5004963
40
3.3259003
50
162.8748392
51
180.0655446
0
ARC
8
DEFAULT_255_2_778
10
8.5266583
20
4.5029034
40
3.3015444
50
108.1059926
51
162.7882941
0
ARC
8
DEFAULT_255_2_778
10
8.5281823
20
4.4831674
40
3.3207801
50
90.5757696
51
108.0251594
0
ARC
8
DEFAULT_255_2_778
10
8.5328008
20
4.3970254
40
3.4069663
50
89.999872
51
90.6388795
0
ARC
8
DEFAULT_255_2_778
10
8.5366131
20
4.4780935
40
3.3259003
50
72.8748392
51
90.0655446
0
ARC
8
DEFAULT_255_2_778
10
8.5390203
20
4.5028417
40
3.3015444
50
18.1059926
51
72.7882941
0
ARC
8
DEFAULT_255_2_778
10
8.5192843
20
4.5013177
40
3.3207801
50
0.5757696
51
18.0251594
0
ARC
8
DEFAULT_255_2_778
10
8.4331422
20
4.4966992
40
3.4069663
50
359.999872
51
0.6388795
0
ARC
8
DEFAULT_255_2_778
10
8.5142103
20
4.4928869
40
3.3259003
50
342.8748392
51
0.0655446
0
ARC
8
DEFAULT_255_2_778
10
8.5389586
20
4.4904797
40
3.3015444
50
288.1059926
51
342.7882941
0
ARC
8
DEFAULT_255_2_778
10
8.5374346
20
4.5102157
40
3.3207801
50
270.5757696
51
288.0251594
0
ARC
8
DEFAULT_255_2_778
10
8.532816
20
4.5963578
40
3.4069663
50
269.999872
51
270.6388795
0
ARC
8
DEFAULT_255_2_778
10
8.5290037
20
4.5152897
40
3.3259003
50
252.8748392
51
270.0655446
0
ARC
8
DEFAULT_255_2_778
10
8.5265966
20
4.4905414
40
3.3015444
50
198.1059926
51
252.7882941
0
ARC
8
DEFAULT_255_2_778
10
8.5463326
20
4.4920654
40
3.3207801
50
180.5757696
51
198.0251594
0
ARC
8
DEFAULT_255_2_778
10
8.6324746
20
4.496684
40
3.4069663
50
179.999872
51
180.6388795
0
LINE
8
DEFAULT_255_2_778
10
5.2255084
20
4.4966916
11
5.2255084
21
4.4966916
0
ARC
8
DEFAULT_255_2_778
10
9.3335592
20
3.9775486
40
0.4143453
50
187.5613306
51
205.7365286
0
ARC
8
DEFAULT_255_2_778
10
8.5852445
20
4.2238035
40
0.4521306
50
268.0825895
51
318.2989059
0
ARC
8
DEFAULT_255_2_778
10
8.5534753
20
4.2729956
40
0.5013459
50
231.9706933
51
271.9021991
0
ARC
8
DEFAULT_255_2_778
10
8.5418264
20
4.2459885
40
0.4729549
50
228.6905324
51
231.0666287
0
ARC
8
DEFAULT_255_2_778
10
8.4767674
20
4.1823133
40
0.3822389
50
178.7688557
51
229.7152391
0
ARC
8
DEFAULT_255_2_778
10
8.4889395
20
4.2103055
40
0.3948186
50
125.5268318
51
182.8715841
0
ARC
8
DEFAULT_255_2_778
10
8.6017152
20
4.0350331
40
0.603079
50
101.2993559
51
124.570443
0
ARC
8
DEFAULT_255_2_778
10
8.7266415
20
3.4706512
40
1.181059
50
89.7828638
51
101.8777558
0
ARC
8
DEFAULT_255_2_778
10
8.7421311
20
3.0494594
40
1.6022802
50
90.236522
51
90.3938386
0
ARC
8
DEFAULT_255_2_778
10
8.6772379
20
4.7435362
40
0.2302716
50
357.1099515
51
38.5134671
0
ARC
8
DEFAULT_255_2_778
10
8.7224407
20
4.7586347
40
0.1862181
50
43.5455108
51
91.7001736
0
ARC
8
DEFAULT_255_2_778
10
8.7006866
20
4.5742302
40
0.3708958
50
87.4921203
51
90.0262367
0
ARC
8
DEFAULT_255_2_778
10
8.6875981
20
4.7228238
40
0.2226773
50
86.6741215
51
127.3134302
0
ARC
8
DEFAULT_255_2_778
10
8.6524825
20
4.7830441
40
0.1537354
50
130.5111186
51
182.69111
0
ARC
8
DEFAULT_255_2_778
10
8.5013458
20
4.7756166
40
0.3757291
50
143.1926115
51
179.9680649
0
ARC
8
DEFAULT_255_2_778
10
8.5956977
20
4.7039712
40
0.4941978
50
111.7690183
51
143.0958715
0
ARC
8
DEFAULT_255_2_778
10
8.708224
20
4.4480891
40
0.7736238
50
89.1413918
51
112.4803016
0
ARC
8
DEFAULT_255_2_778
10
8.732917
20
4.4790253
40
0.7427163
50
70.9565697
51
91.0106583
0
ARC
8
DEFAULT_255_2_778
10
8.8078191
20
4.7128091
40
0.4973178
50
49.6338641
51
70.3255175
0
ARC
8
DEFAULT_255_2_778
10
8.8396205
20
4.7595787
40
0.4411278
50
0.8912692
51
48.8465869
0
ARC
8
DEFAULT_255_2_778
10
8.5950102
20
4.7272002
40
0.6868066
50
359.9687872
51
3.2753439
0
ARC
8
DEFAULT_255_2_778
10
10.2650632
20
4.1154751
40
0.9832616
50
179.6823671
51
190.4646694
0
ARC
8
DEFAULT_255_2_778
10
9.7199238
20
4.0132289
40
0.4286215
50
190.2598313
51
206.8220258
0
ARC
8
DEFAULT_255_2_778
10
8.6547555
20
4.3783948
40
0.3209841
50
269.4397199
51
297.7109489
0
ARC
8
DEFAULT_255_2_778
10
8.6962714
20
4.3102578
40
0.24141
50
296.5076179
51
331.0016536
0
ARC
8
DEFAULT_255_2_778
10
8.755931
20
3.9341442
40
0.4994281
50
88.6133576
51
107.0718199
0
ARC
8
DEFAULT_255_2_778
10
8.658112
20
4.2290827
40
0.1888954
50
104.9712589
51
176.76997
0
ARC
8
DEFAULT_255_2_778
10
8.6175777
20
4.2136057
40
0.1494206
50
178.3814754
51
227.907521
0
ARC
8
DEFAULT_255_2_778
10
8.6411849
20
4.2479074
40
0.1907778
50
229.5521669
51
273.1946875
0
ARC
8
DEFAULT_255_2_778
10
10.2094311
20
3.8383969
40
1.0175821
50
81.8199697
51
89.4152203
0
ARC
8
DEFAULT_255_2_778
10
10.2072297
20
4.4671514
40
0.3889783
50
88.1456267
51
113.6875721
0
ARC
8
DEFAULT_255_2_778
10
10.1449746
20
4.6219883
40
0.2222363
50
115.0271753
51
155.9587629
0
ARC
8
DEFAULT_255_2_778
10
10.2683345
20
4.848523
40
0.3819058
50
115.8026616
51
151.8454175
0
ARC
8
DEFAULT_255_2_778
10
10.2389813
20
4.8814436
40
0.3397064
50
89.3193566
51
113.761873
0
ARC
8
DEFAULT_255_2_778
10
10.2458893
20
4.8284991
40
0.3926375
50
73.2239758
51
90.4191877
0
LINE
8
DEFAULT_255_2_778
10
7.0964167
20
5.195726
11
7.3559167
21
4.253826
0
LINE
8
DEFAULT_255_2_778
10
7.3559167
20
4.253826
11
7.6155167
21
5.195726
0
LINE
8
DEFAULT_255_2_778
10
7.6155167
20
5.195726
11
8.0057167
21
5.195726
0
LINE
8
DEFAULT_255_2_778
10
8.0057167
20
5.195726
11
7.5342167
21
3.797926
0
LINE
8
DEFAULT_255_2_778
10
7.5342167
20
3.797926
11
7.1776167
21
3.797926
0
LINE
8
DEFAULT_255_2_778
10
7.1776167
20
3.797926
11
6.7061167
21
5.195726
0
LINE
8
DEFAULT_255_2_778
10
6.7061167
20
5.195726
11
7.0964167
21
5.195726
0
LINE
8
DEFAULT_255_2_778
10
7.0964167
20
5.195726
11
7.0964167
21
5.195726
0
LINE
8
DEFAULT_255_2_778
10
9.3376167
20
3.797626
11
8.9603167
21
3.797626
0
LINE
8
DEFAULT_255_2_778
10
8.7355167
20
4.651726
11
8.9072167
21
4.651726
0
LINE
8
DEFAULT_255_2_778
10
8.9072167
20
4.651726
11
8.9072167
21
4.731926
0
LINE
8
DEFAULT_255_2_778
10
8.4989167
20
4.775826
11
8.1256167
21
4.775826
0
LINE
8
DEFAULT_255_2_778
10
9.2818167
20
4.726826
11
9.2818167
21
4.120926
0
LINE
8
DEFAULT_255_2_778
10
9.3374167
20
3.819826
11
9.3374167
21
3.797926
0
LINE
8
DEFAULT_255_2_778
10
9.3374167
20
3.797926
11
9.3376167
21
3.797626
0
LINE
8
DEFAULT_255_2_778
10
8.9074167
20
4.193226
11
8.9074167
21
4.433426
0
LINE
8
DEFAULT_255_2_778
10
8.9074167
20
4.433426
11
8.7680167
21
4.433426
0
LINE
8
DEFAULT_255_2_778
10
8.4695167
20
4.239726
11
8.4682167
21
4.217826
0
LINE
8
DEFAULT_255_2_778
10
8.6518167
20
4.057426
11
8.6516167
21
4.057426
0
LINE
8
DEFAULT_255_2_778
10
10.3595167
20
5.204726
11
10.3542167
21
4.845626
0
LINE
8
DEFAULT_255_2_778
10
9.9420167
20
4.712526
11
9.9420167
21
3.797926
0
LINE
8
DEFAULT_255_2_778
10
9.9420167
20
3.797926
11
9.5686167
21
3.797926
0
LINE
8
DEFAULT_255_2_778
10
9.5686167
20
3.797926
11
9.5686167
21
5.195426
0
LINE
8
DEFAULT_255_2_778
10
9.5686167
20
5.195426
11
9.9213167
21
5.195426
0
LINE
8
DEFAULT_255_2_778
10
9.9213167
20
5.195426
11
9.9316167
21
5.028726
0
LINE
8
DEFAULT_255_2_778
10
10.3592167
20
5.204426
11
10.3595167
21
5.204726
0
ENDSEC
0
EOF