0
SECTION
2
HEADER
9
$MEASUREMENT
70
1
0
ENDSEC
0
SECTION
2
TABLES
0
TABLE
2
LTYPE
0
LTYPE
72
65
70
64
2
CONTINUOUS
3
______
73
0
40
0
0
ENDTAB
0
TABLE
2
LAYER
0
LAYER
2
DEFAULT_255_1_234
70
0
62
255
6
CONTINUOUS
0
LAYER
2
DEFAULT_255_2_778
70
0
62
255
6
CONTINUOUS
0
ENDTAB
0
ENDSEC
0
SECTION
2
ENTITIES
0
LINE
8
DEFAULT_255_1_234
10
6.0190137
20
9.9155433
11
6.0190137
21
8.7405
0
LINE
8
DEFAULT_255_1_234
10
6.0190137
20
8.7405
11
5.8696234
21
8.7405
0
LINE
8
DEFAULT_255_1_234
10
5.8696234
20
8.7405
11
5.8696234
21
9.7308133
0
LINE
8
DEFAULT_255_1_234
10
5.8696234
20
9.7308133
11
5.5700396
21
9.6207785
0
LINE
8
DEFAULT_255_1_234
10
5.5700396
20
9.6207785
11
5.5700396
21
9.7557117
0
LINE
8
DEFAULT_255_1_234
10
5.5700396
20
9.7557117
11
5.9957217
21
9.9155433
0
LINE
8
DEFAULT_255_1_234
10
5.9957217
20
9.9155433
11
6.0190137
21
9.9155433
0
LINE
8
DEFAULT_255_1_234
10
6.2886119
20
-0.9784208
11
6.2886119
21
-1.0997
0
LINE
8
DEFAULT_255_1_234
10
6.2886119
20
-1.0997
11
5.522384
21
-1.0997
0
LINE
8
DEFAULT_255_1_234
10
5.522384
20
-1.0997
11
5.522384
21
-0.9928779
0
LINE
8
DEFAULT_255_1_234
10
5.522384
20
-0.9928779
11
5.9271836
21
-0.5431005
0
LINE
8
DEFAULT_255_1_234
10
5.6484823
20
-0.2748405
11
5.4998952
21
-0.2748405
0
LINE
8
DEFAULT_255_1_234
10
6.0147296
20
-0.6386782
11
5.7014918
21
-0.9784208
0
LINE
8
DEFAULT_255_1_234
10
5.7014918
20
-0.9784208
11
6.2886119
21
-0.9784208
0
ARC
8
DEFAULT_255_1_234
10
4.578167
20
0.6498527
40
1.8008286
50
318.5132453
51
320.7828378
0
ARC
8
DEFAULT_255_1_234
10
5.1068644
20
0.2195426
40
1.1191493
50
320.7372736
51
323.9737074
0
ARC
8
DEFAULT_255_1_234
10
5.4988501
20
-0.0644639
40
0.6350923
50
323.8961724
51
328.6421089
0
ARC
8
DEFAULT_255_1_234
10
5.7035096
20
-0.1906969
40
0.3946393
50
328.8299013
51
331.789948
0
ARC
8
DEFAULT_255_1_234
10
5.8032274
20
-0.2421491
40
0.2824501
50
331.4255242
51
352.9364833
0
ARC
8
DEFAULT_255_1_234
10
5.8168775
20
-0.2452024
40
0.2685315
50
353.2248685
51
0.0169286
0
ARC
8
DEFAULT_255_1_234
10
5.8378652
20
-0.242905
40
0.2475536
50
359.4866256
51
15.9339782
0
ARC
8
DEFAULT_255_1_234
10
5.8885637
20
-0.2292714
40
0.1950618
50
16.1714718
51
43.5284424
0
ARC
8
DEFAULT_255_1_234
10
5.8962946
20
-0.2215427
40
0.184134
50
43.4415429
51
83.1661404
0
ARC
8
DEFAULT_255_1_234
10
5.8828864
20
-0.2952229
40
0.258926
50
82.160215
51
90.1505798
0
ARC
8
DEFAULT_255_1_234
10
5.8797291
20
-0.3489135
40
0.3126255
50
89.5460705
51
102.5418777
0
ARC
8
DEFAULT_255_1_234
10
5.8554377
20
-0.2458335
40
0.2067346
50
102.1739365
51
129.2061916
0
ARC
8
DEFAULT_255_1_234
10
5.8475449
20
-0.2333906
40
0.1921118
50
129.7279328
51
135.7542026
0
ARC
8
DEFAULT_255_1_234
10
5.8596977
20
-0.2430955
40
0.2075944
50
136.175737
51
166.3674722
0
ARC
8
DEFAULT_255_1_234
10
5.9603896
20
-0.2700818
40
0.3118201
50
165.9092917
51
178.8683903
0
ARC
8
DEFAULT_255_1_234
10
6.0468757
20
-0.2747821
40
0.3983935
50
178.438168
51
180.0083905
0
ARC
8
DEFAULT_255_1_234
10
5.9067359
20
-0.2708769
40
0.4068601
50
163.2878735
51
180.5581814
0
ARC
8
DEFAULT_255_1_234
10
5.8265621
20
-0.248816
40
0.3237344
50
133.454115
51
162.9470031
0
ARC
8
DEFAULT_255_1_234
10
5.8444162
20
-0.2678
40
0.349795
50
100.7869394
51
133.4384016
0
ARC
8
DEFAULT_255_1_234
10
5.8791934
20
-0.4226681
40
0.5084616
50
89.6605301
51
101.3704185
0
ARC
8
DEFAULT_255_1_234
10
5.8858273
20
-0.4165504
40
0.502348
50
78.2171172
51
90.4130393
0
ARC
8
DEFAULT_255_1_234
10
5.9213351
20
-0.2541363
40
0.3361092
50
55.9268222
51
78.4888551
0
ARC
8
DEFAULT_255_1_234
10
5.9409791
20
-0.2202676
40
0.2970617
50
47.9292255
51
55.4054003
0
ARC
8
DEFAULT_255_1_234
10
5.9511352
20
-0.2099498
40
0.2825983
50
4.3347696
51
48.0560701
0
ARC
8
DEFAULT_255_1_234
10
5.8415745
20
-0.2269399
40
0.393225
50
359.925209
51
5.5967654
0
ARC
8
DEFAULT_255_1_234
10
5.8844637
20
-0.2213184
40
0.3503892
50
337.8914096
51
358.9967724
0
ARC
8
DEFAULT_255_1_234
10
5.6131049
20
-0.1166294
40
0.6412172
50
326.9135351
51
338.3505194
0
ARC
8
DEFAULT_255_1_234
10
5.2145353
20
0.1388284
40
1.1146189
50
319.6472867
51
327.095818
0
ARC
8
DEFAULT_255_1_234
10
4.8312356
20
0.455
40
1.6114559
50
317.2586784
51
319.9046139
0
ARC
8
DEFAULT_255_2_778
10
8.5514065
20
4.5004963
40
3.3259003
50
162.8748392
51
180.0655446
0
ARC
8
DEFAULT_255_2_778
10
8.5266583
20
4.5029034
40
3.3015444
50
108.1059926
51
162.7882941
0
ARC
8
DEFAULT_255_2_778
10
8.5281823
20
4.4831674
40
3.3207801
50
90.5757696
51
108.0251594
0
ARC
8
DEFAULT_255_2_778
10
8.5328008
20
4.3970254
40
3.4069663
50
89.999872
51
90.6388795
0
ARC
8
DEFAULT_255_2_778
10
8.5366131
20
4.4780935
40
3.3259003
50
72.8748392
51
90.0655446
0
ARC
8
DEFAULT_255_2_778
10
8.5390203
20
4.5028417
40
3.3015444
50
18.1059926
51
72.7882941
0
ARC
8
DEFAULT_255_2_778
10
8.5192843
20
4.5013177
40
3.3207801
50
0.5757696
51
18.0251594
0
ARC
8
DEFAULT_255_2_778
10
8.4331422
20
4.4966992
40
3.4069663
50
359.999872
51
0.6388795
0
ARC
8
DEFAULT_255_2_778
10
8.5142103
20
4.4928869
40
3.3259003
50
342.8748392
51
0.0655446
0
ARC
8
DEFAULT_255_2_778
10
8.5389586
20
4.4904797
40
3.3015444
50
288.1059926
51
342.7882941
0
ARC
8
DEFAULT_255_2_778
10
8.5374346
20
4.5102157
40
3.3207801
50
270.5757696
51
288.0251594
0
ARC
8
DEFAULT_255_2_778
10
8.532816
20
4.5963578
40
3.4069663
50
269.999872
51
270.6388795
0
ARC
8
DEFAULT_255_2_778
10
8.5290037
20
4.5152897
40
3.3259003
50
252.8748392
51
270.0655446
0
ARC
8
DEFAULT_255_2_778
10
8.5265966
20
4.4905414
40
3.3015444
50
198.1059926
51
252.7882941
0
ARC
8
DEFAULT_255_2_778
10
8.5463326
20
4.4920654
40
3.3207801
50
180.5757696
51
198.0251594
0
ARC
8
DEFAULT_255_2_778
10
8.6324746
20
4.496684
40
3.4069663
50
179.999872
51
180.6388795
0
LINE
8
DEFAULT_255_2_778
10
5.2255084
20
4.4966916
11
5.2255084
21
4.4966916
0
LINE
8
DEFAULT_255_2_778
10
8.5851761
20
5.4372614
11
8.5851761
21
3.5563614
0
LINE
8
DEFAULT_255_2_778
10
8.5851761
20
3.5563614
11
8.1975761
21
3.5563614
0
LINE
8
DEFAULT_255_2_778
10
8.1975761
20
3.5563614
11
8.1975761
21
4.3625614
0
LINE
8
DEFAULT_255_2_778
10
8.1975761
20
4.3625614
11
7.4418761
21
4.3625614
0
LINE
8
DEFAULT_255_2_778
10
7.4418761
20
4.3625614
11
7.4418761
21
3.5563614
0
LINE
8
DEFAULT_255_2_778
10
7.4418761
20
3.5563614
11
7.0542761
21
3.5563614
0
LINE
8
DEFAULT_255_2_778
10
7.0542761
20
3.5563614
11
7.0542761
21
5.4372614
0
LINE
8
DEFAULT_255_2_778
10
7.0542761
20
5.4372614
11
7.4418761
21
5.4372614
0
LINE
8
DEFAULT_255_2_778
10
7.4418761
20
5.4372614
11
7.4418761
21
4.6749614
0
LINE
8
DEFAULT_255_2_778
10
7.4418761
20
4.6749614
11
8.1975761
21
4.6749614
0
LINE
8
DEFAULT_255_2_778
10
8.1975761
20
4.6749614
11
8.1975761
21
5.4372614
0
LINE
8
DEFAULT_255_2_778
10
8.1975761
20
5.4372614
11
8.5851761
21
5.4372614
0
LINE
8
DEFAULT_255_2_778
10
8.5851761
20
5.4372614
11
8.5851761
21
5.4372614
0
LINE
8
DEFAULT_255_2_778
10
9.9908761
20
4.7331614
11
9.3280761
21
3.8574614
0
LINE
8
DEFAULT_255_2_778
10
9.3280761
20
3.8574614
11
10.0114761
21
3.8574614
0
LINE
8
DEFAULT_255_2_778
10
10.0114761
20
3.8574614
11
10.0114761
21
3.5563614
0
LINE
8
DEFAULT_255_2_778
10
10.0114761
20
3.5563614
11
8.8512761
21
3.5563614
0
LINE
8
DEFAULT_255_2_778
10
8.8512761
20
3.5563614
11
8.8512761
21
3.7836614
0
LINE
8
DEFAULT_255_2_778
10
8.8512761
20
3.7836614
11
9.5087761
21
4.6517614
0
LINE
8
DEFAULT_255_2_778
10
9.5087761
20
4.6517614
11
8.8706761
21
4.6517614
0
LINE
8
DEFAULT_255_2_778
10
8.8706761
20
4.6517614
11
8.8706761
21
4.9541614
0
LINE
8
DEFAULT_255_2_778
10
8.8706761
20
4.9541614
11
9.9905761
21
4.9541614
0
LINE
8
DEFAULT_255_2_778
10
9.9905761
20
4.9541614
11
9.9905761
21
4.7331614
0
LINE
8
DEFAULT_255_2_778
10
9.9905761
20
4.7331614
11
9.9908761
21
4.7331614
0
ENDSEC
0
EOF