0
SECTION
2
HEADER
9
$MEASUREMENT
70
1
0
ENDSEC
0
SECTION
2
TABLES
0
TABLE
2
LTYPE
0
LTYPE
72
65
70
64
2
CONTINUOUS
3
______
73
0
40
0
0
ENDTAB
0
TABLE
2
LAYER
0
LAYER
2
DEFAULT_255_1_234
70
0
62
255
6
CONTINUOUS
0
LAYER
2
DEFAULT_255_2_778
70
0
62
255
6
CONTINUOUS
0
ENDTAB
0
ENDSEC
0
SECTION
2
ENTITIES
0
LINE
8
DEFAULT_255_1_234
10
6.0190137
20
9.9155433
11
6.0190137
21
8.7405
0
LINE
8
DEFAULT_255_1_234
10
6.0190137
20
8.7405
11
5.8696234
21
8.7405
0
LINE
8
DEFAULT_255_1_234
10
5.8696234
20
8.7405
11
5.8696234
21
9.7308133
0
LINE
8
DEFAULT_255_1_234
10
5.8696234
20
9.7308133
11
5.5700396
21
9.6207785
0
LINE
8
DEFAULT_255_1_234
10
5.5700396
20
9.6207785
11
5.5700396
21
9.7557117
0
LINE
8
DEFAULT_255_1_234
10
5.5700396
20
9.7557117
11
5.9957217
21
9.9155433
0
LINE
8
DEFAULT_255_1_234
10
5.9957217
20
9.9155433
11
6.0190137
21
9.9155433
0
LINE
8
DEFAULT_255_1_234
10
6.2886119
20
-0.9784208
11
6.2886119
21
-1.0997
0
LINE
8
DEFAULT_255_1_234
10
6.2886119
20
-1.0997
11
5.522384
21
-1.0997
0
LINE
8
DEFAULT_255_1_234
10
5.522384
20
-1.0997
11
5.522384
21
-0.9928779
0
LINE
8
DEFAULT_255_1_234
10
5.522384
20
-0.9928779
11
5.9271836
21
-0.5431005
0
LINE
8
DEFAULT_255_1_234
10
5.6484823
20
-0.2748405
11
5.4998952
21
-0.2748405
0
LINE
8
DEFAULT_255_1_234
10
6.0147296
20
-0.6386782
11
5.7014918
21
-0.9784208
0
LINE
8
DEFAULT_255_1_234
10
5.7014918
20
-0.9784208
11
6.2886119
21
-0.9784208
0
ARC
8
DEFAULT_255_1_234
10
4.578167
20
0.6498527
40
1.8008286
50
318.5132453
51
320.7828378
0
ARC
8
DEFAULT_255_1_234
10
5.1068644
20
0.2195426
40
1.1191493
50
320.7372736
51
323.9737074
0
ARC
8
DEFAULT_255_1_234
10
5.4988501
20
-0.0644639
40
0.6350923
50
323.8961724
51
328.6421089
0
ARC
8
DEFAULT_255_1_234
10
5.7035096
20
-0.1906969
40
0.3946393
50
328.8299013
51
331.789948
0
ARC
8
DEFAULT_255_1_234
10
5.8032274
20
-0.2421491
40
0.2824501
50
331.4255242
51
352.9364833
0
ARC
8
DEFAULT_255_1_234
10
5.8168775
20
-0.2452024
40
0.2685315
50
353.2248685
51
0.0169286
0
ARC
8
DEFAULT_255_1_234
10
5.8378652
20
-0.242905
40
0.2475536
50
359.4866256
51
15.9339782
0
ARC
8
DEFAULT_255_1_234
10
5.8885637
20
-0.2292714
40
0.1950618
50
16.1714718
51
43.5284424
0
ARC
8
DEFAULT_255_1_234
10
5.8962946
20
-0.2215427
40
0.184134
50
43.4415429
51
83.1661404
0
ARC
8
DEFAULT_255_1_234
10
5.8828864
20
-0.2952229
40
0.258926
50
82.160215
51
90.1505798
0
ARC
8
DEFAULT_255_1_234
10
5.8797291
20
-0.3489135
40
0.3126255
50
89.5460705
51
102.5418777
0
ARC
8
DEFAULT_255_1_234
10
5.8554377
20
-0.2458335
40
0.2067346
50
102.1739365
51
129.2061916
0
ARC
8
DEFAULT_255_1_234
10
5.8475449
20
-0.2333906
40
0.1921118
50
129.7279328
51
135.7542026
0
ARC
8
DEFAULT_255_1_234
10
5.8596977
20
-0.2430955
40
0.2075944
50
136.175737
51
166.3674722
0
ARC
8
DEFAULT_255_1_234
10
5.9603896
20
-0.2700818
40
0.3118201
50
165.9092917
51
178.8683903
0
ARC
8
DEFAULT_255_1_234
10
6.0468757
20
-0.2747821
40
0.3983935
50
178.438168
51
180.0083905
0
ARC
8
DEFAULT_255_1_234
10
5.9067359
20
-0.2708769
40
0.4068601
50
163.2878735
51
180.5581814
0
ARC
8
DEFAULT_255_1_234
10
5.8265621
20
-0.248816
40
0.3237344
50
133.454115
51
162.9470031
0
ARC
8
DEFAULT_255_1_234
10
5.8444162
20
-0.2678
40
0.349795
50
100.7869394
51
133.4384016
0
ARC
8
DEFAULT_255_1_234
10
5.8791934
20
-0.4226681
40
0.5084616
50
89.6605301
51
101.3704185
0
ARC
8
DEFAULT_255_1_234
10
5.8858273
20
-0.4165504
40
0.502348
50
78.2171172
51
90.4130393
0
ARC
8
DEFAULT_255_1_234
10
5.9213351
20
-0.2541363
40
0.3361092
50
55.9268222
51
78.4888551
0
ARC
8
DEFAULT_255_1_234
10
5.9409791
20
-0.2202676
40
0.2970617
50
47.9292255
51
55.4054003
0
ARC
8
DEFAULT_255_1_234
10
5.9511352
20
-0.2099498
40
0.2825983
50
4.3347696
51
48.0560701
0
ARC
8
DEFAULT_255_1_234
10
5.8415745
20
-0.2269399
40
0.393225
50
359.925209
51
5.5967654
0
ARC
8
DEFAULT_255_1_234
10
5.8844637
20
-0.2213184
40
0.3503892
50
337.8914096
51
358.9967724
0
ARC
8
DEFAULT_255_1_234
10
5.6131049
20
-0.1166294
40
0.6412172
50
326.9135351
51
338.3505194
0
ARC
8
DEFAULT_255_1_234
10
5.2145353
20
0.1388284
40
1.1146189
50
319.6472867
51
327.095818
0
ARC
8
DEFAULT_255_1_234
10
4.8312356
20
0.455
40
1.6114559
50
317.2586784
51
319.9046139
0
ARC
8
DEFAULT_255_2_778
10
8.5514065
20
4.5004963
40
3.3259003
50
162.8748392
51
180.0655446
0
ARC
8
DEFAULT_255_2_778
10
8.5266583
20
4.5029034
40
3.3015444
50
108.1059926
51
162.7882941
0
ARC
8
DEFAULT_255_2_778
10
8.5281823
20
4.4831674
40
3.3207801
50
90.5757696
51
108.0251594
0
ARC
8
DEFAULT_255_2_778
10
8.5328008
20
4.3970254
40
3.4069663
50
89.999872
51
90.6388795
0
ARC
8
DEFAULT_255_2_778
10
8.5366131
20
4.4780935
40
3.3259003
50
72.8748392
51
90.0655446
0
ARC
8
DEFAULT_255_2_778
10
8.5390203
20
4.5028417
40
3.3015444
50
18.1059926
51
72.7882941
0
ARC
8
DEFAULT_255_2_778
10
8.5192843
20
4.5013177
40
3.3207801
50
0.5757696
51
18.0251594
0
ARC
8
DEFAULT_255_2_778
10
8.4331422
20
4.4966992
40
3.4069663
50
359.999872
51
0.6388795
0
ARC
8
DEFAULT_255_2_778
10
8.5142103
20
4.4928869
40
3.3259003
50
342.8748392
51
0.0655446
0
ARC
8
DEFAULT_255_2_778
10
8.5389586
20
4.4904797
40
3.3015444
50
288.1059926
51
342.7882941
0
ARC
8
DEFAULT_255_2_778
10
8.5374346
20
4.5102157
40
3.3207801
50
270.5757696
51
288.0251594
0
ARC
8
DEFAULT_255_2_778
10
8.532816
20
4.5963578
40
3.4069663
50
269.999872
51
270.6388795
0
ARC
8
DEFAULT_255_2_778
10
8.5290037
20
4.5152897
40
3.3259003
50
252.8748392
51
270.0655446
0
ARC
8
DEFAULT_255_2_778
10
8.5265966
20
4.4905414
40
3.3015444
50
198.1059926
51
252.7882941
0
ARC
8
DEFAULT_255_2_778
10
8.5463326
20
4.4920654
40
3.3207801
50
180.5757696
51
198.0251594
0
ARC
8
DEFAULT_255_2_778
10
8.6324746
20
4.496684
40
3.4069663
50
179.999872
51
180.6388795
0
LINE
8
DEFAULT_255_2_778
10
5.2255084
20
4.4966916
11
5.2255084
21
4.4966916
0
ARC
8
DEFAULT_255_2_778
10
8.7960529
20
3.8559513
40
0.3281007
50
187.4219433
51
205.7772922
0
ARC
8
DEFAULT_255_2_778
10
8.2007866
20
4.0538026
40
0.3613394
50
268.0674412
51
318.3297399
0
ARC
8
DEFAULT_255_2_778
10
8.1743089
20
4.089498
40
0.3970866
50
229.4960632
51
272.0626682
0
ARC
8
DEFAULT_255_2_778
10
8.1140023
20
4.0207837
40
0.3056721
50
178.7655935
51
229.7256573
0
ARC
8
DEFAULT_255_2_778
10
8.1235511
20
4.0432524
40
0.3155501
50
125.5243553
51
182.8852949
0
ARC
8
DEFAULT_255_2_778
10
8.220304
20
3.8903191
40
0.4963389
50
99.5511184
51
124.3563239
0
ARC
8
DEFAULT_255_2_778
10
8.3167375
20
3.4133996
40
0.982778
50
89.7572624
51
100.4817829
0
ARC
8
DEFAULT_255_2_778
10
8.2738415
20
4.4694956
40
0.184895
50
357.1085413
51
38.3707503
0
ARC
8
DEFAULT_255_2_778
10
8.307247
20
4.4757955
40
0.1555981
50
44.1977858
51
94.7204917
0
ARC
8
DEFAULT_255_2_778
10
8.2930548
20
4.3104798
40
0.3203891
50
89.751922
51
89.9917227
0
ARC
8
DEFAULT_255_2_778
10
8.2827545
20
4.4536708
40
0.1774997
50
86.6582775
51
127.4586717
0
ARC
8
DEFAULT_255_2_778
10
8.2548946
20
4.5011792
40
0.1230308
50
130.6173166
51
182.7069624
0
ARC
8
DEFAULT_255_2_778
10
8.134255
20
4.4952185
40
0.300954
50
143.25427
51
179.9714049
0
ARC
8
DEFAULT_255_2_778
10
8.2104344
20
4.4360505
40
0.3973988
50
111.8236331
51
142.989588
0
ARC
8
DEFAULT_255_2_778
10
8.2992497
20
4.2354621
40
0.616679
50
89.1218378
51
112.555905
0
ARC
8
DEFAULT_255_2_778
10
8.3218899
20
4.2829713
40
0.5692503
50
67.6311283
51
91.3275875
0
ARC
8
DEFAULT_255_2_778
10
8.3826753
20
4.4501977
40
0.3915446
50
49.5311661
51
66.5438759
0
ARC
8
DEFAULT_255_2_778
10
8.3994977
20
4.4790583
40
0.3587192
50
358.6386132
51
48.5833711
0
ARC
8
DEFAULT_255_2_778
10
8.1902745
20
4.4560239
40
0.5680266
50
359.9944358
51
1.4639397
0
ARC
8
DEFAULT_255_2_778
10
9.5065039
20
3.9642326
40
0.7482359
50
179.461203
51
191.9325357
0
ARC
8
DEFAULT_255_2_778
10
9.0904184
20
3.8779143
40
0.3232978
50
192.2119537
51
207.1336301
0
ARC
8
DEFAULT_255_2_778
10
8.2560541
20
4.1790337
40
0.2580757
50
269.477594
51
297.6204231
0
ARC
8
DEFAULT_255_2_778
10
8.2897582
20
4.1232182
40
0.1930366
50
296.4371229
51
330.9445017
0
ARC
8
DEFAULT_255_2_778
10
8.3346622
20
3.8481923
40
0.3737736
50
88.1388999
51
110.1137328
0
ARC
8
DEFAULT_255_2_778
10
8.2564463
20
4.0595386
40
0.1484214
50
109.8176799
51
177.2078126
0
ARC
8
DEFAULT_255_2_778
10
8.227121
20
4.0459599
40
0.1200655
50
178.4208088
51
227.6907583
0
ARC
8
DEFAULT_255_2_778
10
8.2450393
20
4.0726903
40
0.1519686
50
229.4789426
51
273.2674841
0
ARC
8
DEFAULT_255_2_778
10
9.6237761
20
4.2404764
40
0.5654143
50
325.5078846
51
357.3838949
0
ARC
8
DEFAULT_255_2_778
10
9.6852948
20
4.2101823
40
0.4976529
50
310.6070737
51
324.3715644
0
ARC
8
DEFAULT_255_2_778
10
9.6342769
20
4.280924
40
0.584611
50
275.0967805
51
309.8905155
0
ARC
8
DEFAULT_255_2_778
10
9.5849418
20
4.5863285
40
0.893462
50
269.8755454
51
276.5082698
0
ARC
8
DEFAULT_255_2_778
10
9.5690069
20
4.3235462
40
0.6308327
50
243.7075284
51
271.2711371
0
ARC
8
DEFAULT_255_2_778
10
9.5350516
20
4.2305505
40
0.5325259
50
220.0816159
51
242.5507964
0
ARC
8
DEFAULT_255_2_778
10
9.6539389
20
4.3223097
40
0.6826011
50
190.0215763
51
219.5493301
0
ARC
8
DEFAULT_255_2_778
10
10.0824341
20
4.4147138
40
1.1207591
50
179.6086611
51
190.8614377
0
ARC
8
DEFAULT_255_2_778
10
9.9046789
20
4.5279522
40
0.9430742
50
160.7811305
51
180.8192046
0
ARC
8
DEFAULT_255_2_778
10
9.7163596
20
4.5833992
40
0.7470605
50
155.1988664
51
160.0422592
0
ARC
8
DEFAULT_255_2_778
10
9.5626262
20
4.6660478
40
0.5729344
50
122.2735292
51
156.2528923
0
ARC
8
DEFAULT_255_2_778
10
9.5738
20
4.6269082
40
0.6121008
50
88.7735745
51
121.2015495
0
ARC
8
DEFAULT_255_2_778
10
9.6002525
20
4.5271086
40
0.7118853
50
68.5583779
51
91.0746471
0
ARC
8
DEFAULT_255_2_778
10
9.661952
20
4.7049143
40
0.5238858
50
48.8623014
51
67.7306398
0
ARC
8
DEFAULT_255_2_778
10
9.6416654
20
4.6941252
40
0.5454185
50
8.6914409
51
48.0029077
0
ARC
8
DEFAULT_255_2_778
10
9.3773553
20
4.6294525
40
0.8168186
50
5.5089959
51
10.374417
0
ARC
8
DEFAULT_255_2_778
10
9.4797709
20
4.6889878
40
0.4010749
50
2.698239
51
25.749743
0
ARC
8
DEFAULT_255_2_778
10
9.6541468
20
4.7671409
40
0.2101301
50
27.2123938
51
46.3832382
0
ARC
8
DEFAULT_255_2_778
10
9.6293457
20
4.7219366
40
0.2603015
50
49.2961686
51
86.4187877
0
ARC
8
DEFAULT_255_2_778
10
9.5883091
20
4.4608024
40
0.5240687
50
83.7233579
51
90.1757956
0
ARC
8
DEFAULT_255_2_778
10
9.5699466
20
4.7218797
40
0.2635222
50
86.3547239
51
144.8036342
0
ARC
8
DEFAULT_255_2_778
10
9.7105697
20
4.643507
40
0.4239506
50
147.1027934
51
170.2178438
0
ARC
8
DEFAULT_255_2_778
10
10.2693454
20
4.5309939
40
0.9938464
50
169.2988659
51
180.1167499
0
ARC
8
DEFAULT_255_2_778
10
10.3668706
20
4.4029381
40
1.0914381
50
179.3579298
51
189.7449377
0
ARC
8
DEFAULT_255_2_778
10
9.7301161
20
4.2870551
40
0.4443032
50
188.9154219
51
210.2281305
0
ARC
8
DEFAULT_255_2_778
10
9.5795835
20
4.2093544
40
0.2752569
50
212.0287876
51
213.2162037
0
ARC
8
DEFAULT_255_2_778
10
9.5622217
20
4.2023854
40
0.2569405
50
214.0369602
51
273.3970918
0
ARC
8
DEFAULT_255_2_778
10
9.582373
20
4.3886644
40
0.4427955
50
269.3625766
51
270.003638
0
ARC
8
DEFAULT_255_2_778
10
9.5949076
20
4.3268967
40
0.3812332
50
268.1200466
51
292.6780754
0
ARC
8
DEFAULT_255_2_778
10
9.6555384
20
4.1660862
40
0.2095668
50
294.3345416
51
312.4560517
0
ARC
8
DEFAULT_255_2_778
10
9.6074999
20
4.1996748
40
0.2670809
50
315.1964668
51
353.5119452
0
ARC
8
DEFAULT_255_2_778
10
9.3692393
20
4.2518295
40
0.5103166
50
350.7153941
51
355.8240811
0
LINE
8
DEFAULT_255_2_778
10
7.6015011
20
5.2179687
11
7.6015011
21
3.7129687
0
LINE
8
DEFAULT_255_2_778
10
7.6015011
20
3.7129687
11
7.2914011
21
3.7129687
0
LINE
8
DEFAULT_255_2_778
10
7.2914011
20
3.7129687
11
6.6879011
21
4.7030687
0
LINE
8
DEFAULT_255_2_778
10
6.6879011
20
4.7030687
11
6.6879011
21
3.7129687
0
LINE
8
DEFAULT_255_2_778
10
6.6879011
20
3.7129687
11
6.3778011
21
3.7129687
0
LINE
8
DEFAULT_255_2_778
10
6.3778011
20
3.7129687
11
6.3778011
21
5.2179687
0
LINE
8
DEFAULT_255_2_778
10
6.3778011
20
5.2179687
11
6.6879011
21
5.2179687
0
LINE
8
DEFAULT_255_2_778
10
6.6879011
20
5.2179687
11
7.2925011
21
4.2257687
0
LINE
8
DEFAULT_255_2_778
10
7.2925011
20
4.2257687
11
7.2925011
21
5.2179687
0
LINE
8
DEFAULT_255_2_778
10
7.2925011
20
5.2179687
11
7.6015011
21
5.2179687
0
LINE
8
DEFAULT_255_2_778
10
7.6015011
20
5.2179687
11
7.6015011
21
5.2179687
0
LINE
8
DEFAULT_255_2_778
10
8.8024011
20
3.7132687
11
8.5006011
21
3.7132687
0
LINE
8
DEFAULT_255_2_778
10
8.3209011
20
4.3961687
11
8.4585011
21
4.3961687
0
LINE
8
DEFAULT_255_2_778
10
8.4585011
20
4.3961687
11
8.4585011
21
4.4601687
0
LINE
8
DEFAULT_255_2_778
10
8.1320011
20
4.4953687
11
7.8333011
21
4.4953687
0
LINE
8
DEFAULT_255_2_778
10
8.7583011
20
4.4559687
11
8.7583011
21
3.9712687
0
LINE
8
DEFAULT_255_2_778
10
8.8027011
20
3.7304687
11
8.8027011
21
3.7129687
0
LINE
8
DEFAULT_255_2_778
10
8.8027011
20
3.7129687
11
8.8024011
21
3.7132687
0
LINE
8
DEFAULT_255_2_778
10
8.4585011
20
4.0294687
11
8.4585011
21
4.2217687
0
LINE
8
DEFAULT_255_2_778
10
8.4585011
20
4.2217687
11
8.3468011
21
4.2217687
0
LINE
8
DEFAULT_255_2_778
10
8.1082011
20
4.0667687
11
8.1071011
21
4.0492687
0
LINE
8
DEFAULT_255_2_778
10
8.2537011
20
3.9209687
11
8.2537011
21
3.9209687
0
LINE
8
DEFAULT_255_2_778
10
9.8785011
20
4.2146687
11
10.1886011
21
4.2146687
0
LINE
8
DEFAULT_255_2_778
10
8.9617011
20
4.4223687
11
8.9617011
21
4.5144687
0
LINE
8
DEFAULT_255_2_778
10
10.1904011
20
4.7078687
11
9.8804011
21
4.7078687
0
LINE
8
DEFAULT_255_2_778
10
9.2755011
20
4.5289687
11
9.2755011
21
4.4151687
0
LINE
8
DEFAULT_255_2_778
10
9.8782011
20
4.2146687
11
9.8785011
21
4.2146687
0
LINE
8
DEFAULT_255_2_778
10
10.6876011
20
5.3007687
11
10.6876011
21
3.7132687
0
LINE
8
DEFAULT_255_2_778
10
10.6876011
20
3.7132687
11
10.3878011
21
3.7132687
0
LINE
8
DEFAULT_255_2_778
10
10.3878011
20
3.7132687
11
10.3878011
21
5.3007687
0
LINE
8
DEFAULT_255_2_778
10
10.3878011
20
5.3007687
11
10.6876011
21
5.3007687
0
LINE
8
DEFAULT_255_2_778
10
10.6876011
20
5.3007687
11
10.6876011
21
5.3007687
0
ENDSEC
0
EOF