0
SECTION
2
HEADER
9
$MEASUREMENT
70
1
0
ENDSEC
0
SECTION
2
TABLES
0
TABLE
2
LTYPE
0
LTYPE
72
65
70
64
2
CONTINUOUS
3
______
73
0
40
0
0
ENDTAB
0
TABLE
2
LAYER
0
LAYER
2
DEFAULT_255_1_234
70
0
62
255
6
CONTINUOUS
0
LAYER
2
DEFAULT_255_2_778
70
0
62
255
6
CONTINUOUS
0
ENDTAB
0
ENDSEC
0
SECTION
2
ENTITIES
0
LINE
8
DEFAULT_255_1_234
10
6.0190137
20
9.9155433
11
6.0190137
21
8.7405
0
LINE
8
DEFAULT_255_1_234
10
6.0190137
20
8.7405
11
5.8696234
21
8.7405
0
LINE
8
DEFAULT_255_1_234
10
5.8696234
20
8.7405
11
5.8696234
21
9.7308133
0
LINE
8
DEFAULT_255_1_234
10
5.8696234
20
9.7308133
11
5.5700396
21
9.6207785
0
LINE
8
DEFAULT_255_1_234
10
5.5700396
20
9.6207785
11
5.5700396
21
9.7557117
0
LINE
8
DEFAULT_255_1_234
10
5.5700396
20
9.7557117
11
5.9957217
21
9.9155433
0
LINE
8
DEFAULT_255_1_234
10
5.9957217
20
9.9155433
11
6.0190137
21
9.9155433
0
LINE
8
DEFAULT_255_1_234
10
6.2886119
20
-0.9784208
11
6.2886119
21
-1.0997
0
LINE
8
DEFAULT_255_1_234
10
6.2886119
20
-1.0997
11
5.522384
21
-1.0997
0
LINE
8
DEFAULT_255_1_234
10
5.522384
20
-1.0997
11
5.522384
21
-0.9928779
0
LINE
8
DEFAULT_255_1_234
10
5.522384
20
-0.9928779
11
5.9271836
21
-0.5431005
0
LINE
8
DEFAULT_255_1_234
10
5.6484823
20
-0.2748405
11
5.4998952
21
-0.2748405
0
LINE
8
DEFAULT_255_1_234
10
6.0147296
20
-0.6386782
11
5.7014918
21
-0.9784208
0
LINE
8
DEFAULT_255_1_234
10
5.7014918
20
-0.9784208
11
6.2886119
21
-0.9784208
0
ARC
8
DEFAULT_255_1_234
10
4.578167
20
0.6498527
40
1.8008286
50
318.5132453
51
320.7828378
0
ARC
8
DEFAULT_255_1_234
10
5.1068644
20
0.2195426
40
1.1191493
50
320.7372736
51
323.9737074
0
ARC
8
DEFAULT_255_1_234
10
5.4988501
20
-0.0644639
40
0.6350923
50
323.8961724
51
328.6421089
0
ARC
8
DEFAULT_255_1_234
10
5.7035096
20
-0.1906969
40
0.3946393
50
328.8299013
51
331.789948
0
ARC
8
DEFAULT_255_1_234
10
5.8032274
20
-0.2421491
40
0.2824501
50
331.4255242
51
352.9364833
0
ARC
8
DEFAULT_255_1_234
10
5.8168775
20
-0.2452024
40
0.2685315
50
353.2248685
51
0.0169286
0
ARC
8
DEFAULT_255_1_234
10
5.8378652
20
-0.242905
40
0.2475536
50
359.4866256
51
15.9339782
0
ARC
8
DEFAULT_255_1_234
10
5.8885637
20
-0.2292714
40
0.1950618
50
16.1714718
51
43.5284424
0
ARC
8
DEFAULT_255_1_234
10
5.8962946
20
-0.2215427
40
0.184134
50
43.4415429
51
83.1661404
0
ARC
8
DEFAULT_255_1_234
10
5.8828864
20
-0.2952229
40
0.258926
50
82.160215
51
90.1505798
0
ARC
8
DEFAULT_255_1_234
10
5.8797291
20
-0.3489135
40
0.3126255
50
89.5460705
51
102.5418777
0
ARC
8
DEFAULT_255_1_234
10
5.8554377
20
-0.2458335
40
0.2067346
50
102.1739365
51
129.2061916
0
ARC
8
DEFAULT_255_1_234
10
5.8475449
20
-0.2333906
40
0.1921118
50
129.7279328
51
135.7542026
0
ARC
8
DEFAULT_255_1_234
10
5.8596977
20
-0.2430955
40
0.2075944
50
136.175737
51
166.3674722
0
ARC
8
DEFAULT_255_1_234
10
5.9603896
20
-0.2700818
40
0.3118201
50
165.9092917
51
178.8683903
0
ARC
8
DEFAULT_255_1_234
10
6.0468757
20
-0.2747821
40
0.3983935
50
178.438168
51
180.0083905
0
ARC
8
DEFAULT_255_1_234
10
5.9067359
20
-0.2708769
40
0.4068601
50
163.2878735
51
180.5581814
0
ARC
8
DEFAULT_255_1_234
10
5.8265621
20
-0.248816
40
0.3237344
50
133.454115
51
162.9470031
0
ARC
8
DEFAULT_255_1_234
10
5.8444162
20
-0.2678
40
0.349795
50
100.7869394
51
133.4384016
0
ARC
8
DEFAULT_255_1_234
10
5.8791934
20
-0.4226681
40
0.5084616
50
89.6605301
51
101.3704185
0
ARC
8
DEFAULT_255_1_234
10
5.8858273
20
-0.4165504
40
0.502348
50
78.2171172
51
90.4130393
0
ARC
8
DEFAULT_255_1_234
10
5.9213351
20
-0.2541363
40
0.3361092
50
55.9268222
51
78.4888551
0
ARC
8
DEFAULT_255_1_234
10
5.9409791
20
-0.2202676
40
0.2970617
50
47.9292255
51
55.4054003
0
ARC
8
DEFAULT_255_1_234
10
5.9511352
20
-0.2099498
40
0.2825983
50
4.3347696
51
48.0560701
0
ARC
8
DEFAULT_255_1_234
10
5.8415745
20
-0.2269399
40
0.393225
50
359.925209
51
5.5967654
0
ARC
8
DEFAULT_255_1_234
10
5.8844637
20
-0.2213184
40
0.3503892
50
337.8914096
51
358.9967724
0
ARC
8
DEFAULT_255_1_234
10
5.6131049
20
-0.1166294
40
0.6412172
50
326.9135351
51
338.3505194
0
ARC
8
DEFAULT_255_1_234
10
5.2145353
20
0.1388284
40
1.1146189
50
319.6472867
51
327.095818
0
ARC
8
DEFAULT_255_1_234
10
4.8312356
20
0.455
40
1.6114559
50
317.2586784
51
319.9046139
0
ARC
8
DEFAULT_255_2_778
10
8.5514065
20
4.5004963
40
3.3259003
50
162.8748392
51
180.0655446
0
ARC
8
DEFAULT_255_2_778
10
8.5266583
20
4.5029034
40
3.3015444
50
108.1059926
51
162.7882941
0
ARC
8
DEFAULT_255_2_778
10
8.5281823
20
4.4831674
40
3.3207801
50
90.5757696
51
108.0251594
0
ARC
8
DEFAULT_255_2_778
10
8.5328008
20
4.3970254
40
3.4069663
50
89.999872
51
90.6388795
0
ARC
8
DEFAULT_255_2_778
10
8.5366131
20
4.4780935
40
3.3259003
50
72.8748392
51
90.0655446
0
ARC
8
DEFAULT_255_2_778
10
8.5390203
20
4.5028417
40
3.3015444
50
18.1059926
51
72.7882941
0
ARC
8
DEFAULT_255_2_778
10
8.5192843
20
4.5013177
40
3.3207801
50
0.5757696
51
18.0251594
0
ARC
8
DEFAULT_255_2_778
10
8.4331422
20
4.4966992
40
3.4069663
50
359.999872
51
0.6388795
0
ARC
8
DEFAULT_255_2_778
10
8.5142103
20
4.4928869
40
3.3259003
50
342.8748392
51
0.0655446
0
ARC
8
DEFAULT_255_2_778
10
8.5389586
20
4.4904797
40
3.3015444
50
288.1059926
51
342.7882941
0
ARC
8
DEFAULT_255_2_778
10
8.5374346
20
4.5102157
40
3.3207801
50
270.5757696
51
288.0251594
0
ARC
8
DEFAULT_255_2_778
10
8.532816
20
4.5963578
40
3.4069663
50
269.999872
51
270.6388795
0
ARC
8
DEFAULT_255_2_778
10
8.5290037
20
4.5152897
40
3.3259003
50
252.8748392
51
270.0655446
0
ARC
8
DEFAULT_255_2_778
10
8.5265966
20
4.4905414
40
3.3015444
50
198.1059926
51
252.7882941
0
ARC
8
DEFAULT_255_2_778
10
8.5463326
20
4.4920654
40
3.3207801
50
180.5757696
51
198.0251594
0
ARC
8
DEFAULT_255_2_778
10
8.6324746
20
4.496684
40
3.4069663
50
179.999872
51
180.6388795
0
LINE
8
DEFAULT_255_2_778
10
5.2255084
20
4.4966916
11
5.2255084
21
4.4966916
0
ARC
8
DEFAULT_255_2_778
10
35.6270455
20
3.8809895
40
25.1516492
50
179.8396071
51
180.0267969
0
ARC
8
DEFAULT_255_2_778
10
22.5127725
20
3.9166115
40
12.037328
50
179.33095
51
179.8344187
0
ARC
8
DEFAULT_255_2_778
10
19.1476384
20
3.9574751
40
8.6719463
50
178.2965723
51
179.3413006
0
ARC
8
DEFAULT_255_2_778
10
16.5856016
20
4.0377524
40
6.1086568
50
176.2634154
51
178.3348653
0
ARC
8
DEFAULT_255_2_778
10
13.8103409
20
4.2335594
40
3.3265668
50
171.1288448
51
176.5136496
0
ARC
8
DEFAULT_255_2_778
10
11.9640411
20
4.5202809
40
1.4581377
50
164.3716468
51
171.0725855
0
ARC
8
DEFAULT_255_2_778
10
11.1641095
20
4.7469994
40
0.6267095
50
153.518761
51
164.6310969
0
ARC
8
DEFAULT_255_2_778
10
10.8086957
20
4.9284966
40
0.2276898
50
130.6678592
51
154.5187761
0
ARC
8
DEFAULT_255_2_778
10
10.726119
20
5.0222333
40
0.102789
50
90.4609389
51
129.8045728
0
ARC
8
DEFAULT_255_2_778
10
10.7238872
20
5.0034744
40
0.1215527
50
69.0318324
51
89.3377818
0
ARC
8
DEFAULT_255_2_778
10
10.69878
20
4.9351957
40
0.1942972
50
57.654122
51
69.3234337
0
ARC
8
DEFAULT_255_2_778
10
10.6374677
20
4.8370822
40
0.3099914
50
49.7275469
51
57.7825677
0
ARC
8
DEFAULT_255_2_778
10
10.5378339
20
4.7177137
40
0.4654741
50
44.8561619
51
49.8683598
0
ARC
8
DEFAULT_255_2_778
10
10.6701296
20
4.8466452
40
0.2807597
50
36.306727
51
45.2470001
0
ARC
8
DEFAULT_255_2_778
10
10.7345437
20
4.8936116
40
0.2010421
50
23.8902436
51
36.3898766
0
ARC
8
DEFAULT_255_2_778
10
10.7806471
20
4.9137414
40
0.1507368
50
3.3556737
51
23.9913909
0
ARC
8
DEFAULT_255_2_778
10
10.7907499
20
4.9150462
40
0.1405768
50
0.0012077
51
3.0658056
0
ARC
8
DEFAULT_255_2_778
10
10.75248
20
4.9215935
40
0.1789664
50
318.3020971
51
357.9043736
0
ARC
8
DEFAULT_255_2_778
10
10.5834052
20
5.0588372
40
0.3966292
50
302.8629079
51
319.7459915
0
ARC
8
DEFAULT_255_2_778
10
10.4004503
20
5.3357564
40
0.7285182
50
290.1635432
51
303.1312575
0
ARC
8
DEFAULT_255_2_778
10
10.3194467
20
5.5391828
40
0.9474175
50
279.4744505
51
290.5214266
0
ARC
8
DEFAULT_255_2_778
10
10.3342184
20
5.4434197
40
0.8505301
50
272.3844217
51
279.5548289
0
ARC
8
DEFAULT_255_2_778
10
10.3404952
20
5.3272944
40
0.7342457
50
270.0150374
51
272.2720493
0
ARC
8
DEFAULT_255_2_778
10
10.3354689
20
5.1479129
40
0.5548888
50
256.8731122
51
270.5388979
0
ARC
8
DEFAULT_255_2_778
10
10.2768008
20
4.906432
40
0.3064025
50
235.2960608
51
257.301841
0
ARC
8
DEFAULT_255_2_778
10
10.2129729
20
4.8121094
40
0.1925237
50
187.7481292
51
234.9306006
0
ARC
8
DEFAULT_255_2_778
10
10.2727256
20
4.8232823
40
0.2532551
50
179.8527162
51
188.4302882
0
ARC
8
DEFAULT_255_2_778
10
10.3421626
20
4.8228168
40
0.322693
50
171.3044854
51
179.801754
0
ARC
8
DEFAULT_255_2_778
10
10.4473425
20
4.8069887
40
0.4290571
50
164.5969615
51
171.3385806
0
ARC
8
DEFAULT_255_2_778
10
10.5810449
20
4.7705184
40
0.5676439
50
159.3289555
51
164.6324839
0
ARC
8
DEFAULT_255_2_778
10
10.7413887
20
4.7103709
40
0.7388973
50
155.0801476
51
159.354259
0
ARC
8
DEFAULT_255_2_778
10
10.8766088
20
4.6487764
40
0.8874817
50
153.4092521
51
155.1521393
0
ARC
8
DEFAULT_255_2_778
10
6.6743592
20
4.3215711
40
0.2036743
50
267.4938336
51
309.8439831
0
ARC
8
DEFAULT_255_2_778
10
6.6958495
20
4.2888105
40
0.1648133
50
311.4049566
51
0.6192037
0
ARC
8
DEFAULT_255_2_778
10
6.7534569
20
4.2913983
40
0.397997
50
326.9756429
51
359.8838805
0
ARC
8
DEFAULT_255_2_778
10
6.7311205
20
4.3046172
40
0.4239305
50
295.5338321
51
327.1229551
0
ARC
8
DEFAULT_255_2_778
10
6.6774127
20
4.4093283
40
0.5415751
50
269.3166032
51
295.8858309
0
ARC
8
DEFAULT_255_2_778
10
6.6570105
20
4.4279323
40
0.5603142
50
242.7980379
51
271.4258729
0
ARC
8
DEFAULT_255_2_778
10
6.6195286
20
4.3335427
40
0.4593347
50
222.0329404
51
241.5740721
0
ARC
8
DEFAULT_255_2_778
10
6.6965487
20
4.3922643
40
0.5559165
50
187.5073009
51
221.2131996
0
ARC
8
DEFAULT_255_2_778
10
7.0440682
20
4.4590692
40
0.9094239
50
179.7465778
51
188.8196239
0
ARC
8
DEFAULT_255_2_778
10
6.8721269
20
4.4966637
40
0.7375913
50
159.8292609
51
181.0232541
0
ARC
8
DEFAULT_255_2_778
10
6.667084
20
4.5650808
40
0.5215726
50
138.3669103
51
159.117224
0
ARC
8
DEFAULT_255_2_778
10
6.6364415
20
4.584839
40
0.4855755
50
90.8006194
51
137.7072915
0
ARC
8
DEFAULT_255_2_778
10
6.6685264
20
4.3337799
40
0.7376119
50
89.974616
51
93.0207065
0
ARC
8
DEFAULT_255_2_778
10
6.6827324
20
4.5317811
40
0.539789
50
63.1884027
51
91.4733647
0
ARC
8
DEFAULT_255_2_778
10
6.726338
20
4.6382555
40
0.4251901
50
46.6792571
51
61.9609322
0
ARC
8
DEFAULT_255_2_778
10
6.7151002
20
4.6331382
40
0.436648
50
358.8028339
51
46.0671345
0
ARC
8
DEFAULT_255_2_778
10
6.5050406
20
4.6107164
40
0.646749
50
0.6090956
51
1.1782397
0
ARC
8
DEFAULT_255_2_778
10
6.649552
20
4.620965
40
0.2111282
50
359.0845165
51
42.6439278
0
ARC
8
DEFAULT_255_2_778
10
6.6710969
20
4.6338005
40
0.186656
50
44.2261543
51
92.4084206
0
ARC
8
DEFAULT_255_2_778
10
6.6522576
20
4.6340853
40
0.1865308
50
86.6205738
51
144.8435784
0
ARC
8
DEFAULT_255_2_778
10
6.7614308
20
4.5748522
40
0.310232
50
147.5105327
51
172.8969318
0
ARC
8
DEFAULT_255_2_778
10
7.2407041
20
4.4927871
40
0.7962834
50
171.3014389
51
180.5177492
0
ARC
8
DEFAULT_255_2_778
10
7.1731283
20
4.4412161
40
0.7287752
50
179.0505889
51
191.8198651
0
ARC
8
DEFAULT_255_2_778
10
6.7286418
20
4.3462294
40
0.2742636
50
191.4174821
51
213.2402075
0
ARC
8
DEFAULT_255_2_778
10
6.6528642
20
4.3064088
40
0.1892363
50
215.7335318
51
273.8144245
0
ARC
8
DEFAULT_255_2_778
10
7.9694584
20
4.4933281
40
0.6895174
50
154.6271021
51
181.033468
0
ARC
8
DEFAULT_255_2_778
10
7.7854905
20
4.5793493
40
0.4864359
50
120.589234
51
154.4965702
0
ARC
8
DEFAULT_255_2_778
10
7.8160871
20
4.5141535
40
0.5581707
50
88.7510586
51
119.8872851
0
ARC
8
DEFAULT_255_2_778
10
7.8434527
20
4.5188236
40
0.5535768
50
58.020195
51
91.573369
0
ARC
8
DEFAULT_255_2_778
10
7.8651941
20
4.5714952
40
0.4974739
50
45.8581977
51
56.9312602
0
ARC
8
DEFAULT_255_2_778
10
7.8226367
20
4.5371096
40
0.5518276
50
6.7272452
51
45.1736762
0
ARC
8
DEFAULT_255_2_778
10
7.5573398
20
4.4816346
40
0.8221471
50
3.9306277
51
8.4011261
0
ARC
8
DEFAULT_255_2_778
10
7.6787768
20
4.4451528
40
0.7010052
50
337.9328658
51
1.0984761
0
ARC
8
DEFAULT_255_2_778
10
7.8450316
20
4.3862753
40
0.5248691
50
317.24971
51
337.0708518
0
ARC
8
DEFAULT_255_2_778
10
7.8580782
20
4.3801542
40
0.5111525
50
269.7180985
51
316.7608483
0
ARC
8
DEFAULT_255_2_778
10
7.8304865
20
4.6242393
40
0.7556477
50
269.9898898
51
271.9017571
0
ARC
8
DEFAULT_255_2_778
10
7.8159049
20
4.432917
40
0.5645102
50
240.9247061
51
271.4666102
0
ARC
8
DEFAULT_255_2_778
10
7.7868721
20
4.3597792
40
0.4865868
50
222.7487317
51
239.7273569
0
ARC
8
DEFAULT_255_2_778
10
7.847153
20
4.4066426
40
0.562701
50
186.4210225
51
222.0864416
0
ARC
8
DEFAULT_255_2_778
10
8.1657218
20
4.4642187
40
0.8859733
50
179.8142059
51
187.8172713
0
ARC
8
DEFAULT_255_2_778
10
8.1515575
20
4.4456986
40
0.5615411
50
178.7353963
51
196.9437572
0
ARC
8
DEFAULT_255_2_778
10
7.8901763
20
4.3705831
40
0.2896474
50
197.7983737
51
214.7724704
0
ARC
8
DEFAULT_255_2_778
10
7.8204979
20
4.3233061
40
0.2054509
50
215.0247211
51
272.749488
0
ARC
8
DEFAULT_255_2_778
10
7.8386023
20
4.3238853
40
0.2059589
50
267.7045487
51
324.5366568
0
ARC
8
DEFAULT_255_2_778
10
7.733729
20
4.3874202
40
0.3283647
50
326.1242294
51
352.286598
0
ARC
8
DEFAULT_255_2_778
10
7.2612538
20
4.4730032
40
0.8083349
50
350.7699848
51
0.5378832
0
ARC
8
DEFAULT_255_2_778
10
7.5355055
20
4.4930766
40
0.5341935
50
358.6607879
51
18.3083096
0
ARC
8
DEFAULT_255_2_778
10
7.7651986
20
4.5633353
40
0.2941078
50
19.3703487
51
34.9199078
0
ARC
8
DEFAULT_255_2_778
10
7.8367632
20
4.6147899
40
0.2059776
50
34.5792662
51
92.3678668
0
ARC
8
DEFAULT_255_2_778
10
7.8198031
20
4.6183974
40
0.2023708
50
87.6068964
51
145.8872351
0
ARC
8
DEFAULT_255_2_778
10
7.9461151
20
4.5426785
40
0.3495089
50
147.2231422
51
172.943522
0
ARC
8
DEFAULT_255_2_778
10
8.4032207
20
4.4641394
40
0.8130924
50
171.4078868
51
180.4473117
0
ARC
8
DEFAULT_255_2_778
10
9.099343
20
4.2100897
40
0.100011
50
0.2302681
51
64.1476306
0
ARC
8
DEFAULT_255_2_778
10
8.9305164
20
3.905479
40
0.4481612
50
61.7045297
51
75.8952572
0
ARC
8
DEFAULT_255_2_778
10
8.7298499
20
3.2115164
40
1.1703815
50
74.6467463
51
78.546622
0
ARC
8
DEFAULT_255_2_778
10
9.144425
20
5.2882141
40
0.9473038
50
246.272507
51
258.9126347
0
ARC
8
DEFAULT_255_2_778
10
8.9239315
20
4.8031823
40
0.4146021
50
220.351246
51
247.1963148
0
ARC
8
DEFAULT_255_2_778
10
8.8216202
20
4.705507
40
0.2735125
50
178.9557406
51
218.6345582
0
ARC
8
DEFAULT_255_2_778
10
8.866866
20
4.7128271
40
0.3187214
50
126.6634411
51
180.4198484
0
ARC
8
DEFAULT_255_2_778
10
8.9739287
20
4.5834539
40
0.4865042
50
93.1144538
51
127.6799225
0
ARC
8
DEFAULT_255_2_778
10
9.0108055
20
4.3151323
40
0.7567599
50
89.9282527
51
94.7988521
0
ARC
8
DEFAULT_255_2_778
10
9.0245763
20
4.4067484
40
0.6652668
50
70.3593338
51
91.1044525
0
ARC
8
DEFAULT_255_2_778
10
9.0934939
20
4.6184938
40
0.4427209
50
52.1324155
51
69.5486474
0
ARC
8
DEFAULT_255_2_778
10
9.1699398
20
4.7046217
40
0.3278888
50
358.7714613
51
53.4396136
0
ARC
8
DEFAULT_255_2_778
10
9.03713
20
4.702351
40
0.1505984
50
358.1889893
51
44.332129
0
ARC
8
DEFAULT_255_2_778
10
9.0307126
20
4.6785739
40
0.1722604
50
48.5011543
51
92.0257553
0
ARC
8
DEFAULT_255_2_778
10
9.0107968
20
4.4899211
40
0.3610704
50
87.8054189
51
90.0227925
0
ARC
8
DEFAULT_255_2_778
10
8.9989549
20
4.6658654
40
0.1854955
50
86.3842412
51
126.1797308
0
ARC
8
DEFAULT_255_2_778
10
8.9588641
20
4.7273995
40
0.1122308
50
128.2042375
51
181.0761386
0
ARC
8
DEFAULT_255_2_778
10
8.9416645
20
4.7253633
40
0.0950114
50
180.043234
51
240.9662606
0
ARC
8
DEFAULT_255_2_778
10
9.073463
20
4.9442059
40
0.3504342
50
239.4903241
51
256.4450491
0
ARC
8
DEFAULT_255_2_778
10
9.2461544
20
5.5411881
40
0.9716653
50
254.7960069
51
258.9640293
0
ARC
8
DEFAULT_255_2_778
10
8.7963921
20
3.1977698
40
1.4145306
50
71.9349655
51
79.2534185
0
ARC
8
DEFAULT_255_2_778
10
8.9667889
20
3.7469953
40
0.8395809
50
69.8902475
51
71.3674639
0
ARC
8
DEFAULT_255_2_778
10
9.1205855
20
4.1309359
40
0.4263493
50
44.7685334
51
71.5587859
0
ARC
8
DEFAULT_255_2_778
10
9.2081397
20
4.2323431
40
0.2929566
50
358.2098979
51
42.7467773
0
ARC
8
DEFAULT_255_2_778
10
9.1981067
20
4.219163
40
0.3028733
50
303.3593502
51
0.7621459
0
ARC
8
DEFAULT_255_2_778
10
9.0591707
20
4.4085942
40
0.5376239
50
274.7101472
51
304.6253868
0
ARC
8
DEFAULT_255_2_778
10
9.0145085
20
4.7101984
40
0.8421085
50
269.8805711
51
276.0537021
0
ARC
8
DEFAULT_255_2_778
10
9.0011377
20
4.4801702
40
0.6121888
50
246.1653591
51
271.0871779
0
ARC
8
DEFAULT_255_2_778
10
8.9280621
20
4.3189318
40
0.435175
50
216.0570899
51
246.3874927
0
ARC
8
DEFAULT_255_2_778
10
8.8441768
20
4.2592347
40
0.3322243
50
180.110908
51
216.249072
0
ARC
8
DEFAULT_255_2_778
10
8.9676231
20
4.2588009
40
0.16177
50
180.0741201
51
231.5607603
0
ARC
8
DEFAULT_255_2_778
10
9.0067856
20
4.3306962
40
0.2428352
50
234.8708841
51
272.9902049
0
ARC
8
DEFAULT_255_2_778
10
9.0314792
20
4.3347293
40
0.2468308
50
267.2073362
51
296.1838662
0
ARC
8
DEFAULT_255_2_778
10
9.0773466
20
4.2253369
40
0.1286214
50
299.3523444
51
306.6106972
0
ARC
8
DEFAULT_255_2_778
10
9.0942546
20
4.208784
40
0.1053158
50
304.5971077
51
1.037904
0
LINE
8
DEFAULT_255_2_778
10
6.8606532
20
4.2905916
11
7.1514532
21
4.2905916
0
LINE
8
DEFAULT_255_2_778
10
6.1346532
20
4.4630916
11
6.1346532
21
4.4834916
0
LINE
8
DEFAULT_255_2_778
10
7.1517532
20
4.6175916
11
6.8606532
21
4.6175916
0
LINE
8
DEFAULT_255_2_778
10
6.4444532
20
4.4855916
11
6.4444532
21
4.4532916
0
LINE
8
DEFAULT_255_2_778
10
6.6654532
20
4.1175916
11
6.6654532
21
4.1180916
0
LINE
8
DEFAULT_255_2_778
10
7.2800532
20
4.4667916
11
7.2800532
21
4.4808916
0
LINE
8
DEFAULT_255_2_778
10
8.3775532
20
4.5379916
11
8.3796532
21
4.4585916
0
LINE
8
DEFAULT_255_2_778
10
7.2797532
20
4.4670916
11
7.2800532
21
4.4667916
0
LINE
8
DEFAULT_255_2_778
10
7.5901532
20
4.4577916
11
7.5901532
21
4.4580916
0
LINE
8
DEFAULT_255_2_778
10
9.4977532
20
4.6975916
11
9.1876532
21
4.6975916
0
LINE
8
DEFAULT_255_2_778
10
8.5119532
20
4.2585916
11
8.8058532
21
4.2585916
0
LINE
8
DEFAULT_255_2_778
10
9.1995532
20
4.2106916
11
9.1993532
21
4.2104916
0
ENDSEC
0
EOF