0
SECTION
2
HEADER
9
$MEASUREMENT
70
1
0
ENDSEC
0
SECTION
2
TABLES
0
TABLE
2
LTYPE
0
LTYPE
72
65
70
64
2
CONTINUOUS
3
______
73
0
40
0
0
ENDTAB
0
TABLE
2
LAYER
0
LAYER
2
DEFAULT_255_2_778
70
0
62
255
6
CONTINUOUS
0
LAYER
2
DEFAULT_255_1_234
70
0
62
255
6
CONTINUOUS
0
ENDTAB
0
ENDSEC
0
SECTION
2
ENTITIES
0
ARC
8
DEFAULT_255_2_778
10
8.5514065
20
4.5004963
40
3.3259003
50
162.8748392
51
180.0655446
0
ARC
8
DEFAULT_255_2_778
10
8.5266583
20
4.5029034
40
3.3015444
50
108.1059926
51
162.7882941
0
ARC
8
DEFAULT_255_2_778
10
8.5281823
20
4.4831674
40
3.3207801
50
90.5757696
51
108.0251594
0
ARC
8
DEFAULT_255_2_778
10
8.5328008
20
4.3970254
40
3.4069663
50
89.999872
51
90.6388795
0
ARC
8
DEFAULT_255_2_778
10
8.5366131
20
4.4780935
40
3.3259003
50
72.8748392
51
90.0655446
0
ARC
8
DEFAULT_255_2_778
10
8.5390203
20
4.5028417
40
3.3015444
50
18.1059926
51
72.7882941
0
ARC
8
DEFAULT_255_2_778
10
8.5192843
20
4.5013177
40
3.3207801
50
0.5757696
51
18.0251594
0
ARC
8
DEFAULT_255_2_778
10
8.4331422
20
4.4966992
40
3.4069663
50
359.999872
51
0.6388795
0
ARC
8
DEFAULT_255_2_778
10
8.5142103
20
4.4928869
40
3.3259003
50
342.8748392
51
0.0655446
0
ARC
8
DEFAULT_255_2_778
10
8.5389586
20
4.4904797
40
3.3015444
50
288.1059926
51
342.7882941
0
ARC
8
DEFAULT_255_2_778
10
8.5374346
20
4.5102157
40
3.3207801
50
270.5757696
51
288.0251594
0
ARC
8
DEFAULT_255_2_778
10
8.532816
20
4.5963578
40
3.4069663
50
269.999872
51
270.6388795
0
ARC
8
DEFAULT_255_2_778
10
8.5290037
20
4.5152897
40
3.3259003
50
252.8748392
51
270.0655446
0
ARC
8
DEFAULT_255_2_778
10
8.5265966
20
4.4905414
40
3.3015444
50
198.1059926
51
252.7882941
0
ARC
8
DEFAULT_255_2_778
10
8.5463326
20
4.4920654
40
3.3207801
50
180.5757696
51
198.0251594
0
ARC
8
DEFAULT_255_2_778
10
8.6324746
20
4.496684
40
3.4069663
50
179.999872
51
180.6388795
0
LINE
8
DEFAULT_255_2_778
10
5.2255084
20
4.4966916
11
5.2255084
21
4.4966916
0
ARC
8
DEFAULT_255_2_778
10
7.5989032
20
5.8258774
40
0.1244407
50
90.9763407
51
180.8152895
0
ARC
8
DEFAULT_255_2_778
10
7.6688282
20
5.5296992
40
0.4267267
50
89.4566254
51
99.7199551
0
ARC
8
DEFAULT_255_2_778
10
7.5327014
20
4.9176382
40
1.0481835
50
55.9103669
51
82.3148085
0
ARC
8
DEFAULT_255_2_778
10
7.5134866
20
4.925918
40
1.0522969
50
28.7731455
51
54.7911835
0
ARC
8
DEFAULT_255_2_778
10
7.0543966
20
4.65999
40
1.582753
50
17.2600349
51
29.2117063
0
ARC
8
DEFAULT_255_2_778
10
7.8055861
20
4.8349807
40
0.8153795
50
15.7295756
51
21.1822718
0
ARC
8
DEFAULT_255_2_778
10
7.1161489
20
4.6278721
40
1.5351957
50
16.0346141
51
16.1941682
0
ARC
8
DEFAULT_255_2_778
10
7.1283495
20
4.6314507
40
1.5224813
50
15.8705259
51
16.032002
0
ARC
8
DEFAULT_255_2_778
10
7.074909
20
4.6161262
40
1.5780756
50
15.7188
51
15.8751125
0
ARC
8
DEFAULT_255_2_778
10
6.906427
20
4.5686354
40
1.7531229
50
15.5799564
51
15.7210956
0
ARC
8
DEFAULT_255_2_778
10
6.9645689
20
4.584768
40
1.6927844
50
15.435949
51
15.5825303
0
ARC
8
DEFAULT_255_2_778
10
6.873829
20
4.5593944
40
1.7870047
50
15.306584
51
15.4457906
0
ARC
8
DEFAULT_255_2_778
10
6.8134968
20
4.5426114
40
1.8496272
50
15.1798653
51
15.3146673
0
ARC
8
DEFAULT_255_2_778
10
6.549339
20
4.4707926
40
2.1233738
50
15.0660665
51
15.1837299
0
ARC
8
DEFAULT_255_2_778
10
6.4717421
20
4.4500646
40
2.2036913
50
14.9484699
51
15.0620498
0
ARC
8
DEFAULT_255_2_778
10
6.3928359
20
4.4290335
40
2.2853522
50
14.8379394
51
14.9476064
0
ARC
8
DEFAULT_255_2_778
10
6.3186626
20
4.4091898
40
2.3621339
50
14.7364169
51
14.8424802
0
ARC
8
DEFAULT_255_2_778
10
6.1787942
20
4.3725487
40
2.5067218
50
14.6332886
51
14.7331507
0
ARC
8
DEFAULT_255_2_778
10
6.0864938
20
4.3483191
40
2.6021495
50
14.5397669
51
14.6360557
0
ARC
8
DEFAULT_255_2_778
10
6.0102692
20
4.3284774
40
2.6809141
50
14.4481026
51
14.5412615
0
ARC
8
DEFAULT_255_2_778
10
5.8288558
20
4.2817013
40
2.8682609
50
14.361654
51
14.4487737
0
ARC
8
DEFAULT_255_2_778
10
5.717551
20
4.2532383
40
2.9831473
50
14.2771954
51
14.360988
0
ARC
8
DEFAULT_255_2_778
10
5.6000509
20
4.2234115
40
3.1043739
50
14.195342
51
14.2758749
0
ARC
8
DEFAULT_255_2_778
10
5.4772936
20
4.1921761
40
3.2310429
50
14.1211248
51
14.1984986
0
ARC
8
DEFAULT_255_2_778
10
4.826988
20
4.0289316
40
3.9015248
50
14.0519916
51
14.116056
0
ARC
8
DEFAULT_255_2_778
10
4.7986044
20
4.0222709
40
3.9306764
50
13.9821544
51
14.0457207
0
ARC
8
DEFAULT_255_2_778
10
4.4355726
20
3.9325031
40
4.3046416
50
13.9160541
51
13.9740676
0
ARC
8
DEFAULT_255_2_778
10
5.0134629
20
4.0758056
40
3.7092486
50
13.8467502
51
13.9142956
0
ARC
8
DEFAULT_255_2_778
10
4.8547215
20
4.0365578
40
3.8727698
50
13.7838331
51
13.8484721
0
ARC
8
DEFAULT_255_2_778
10
3.8905912
20
3.8001056
40
4.8654716
50
13.7315027
51
13.7830036
0
ARC
8
DEFAULT_255_2_778
10
3.6125232
20
3.73288
40
5.1515496
50
13.6750685
51
13.7237018
0
ARC
8
DEFAULT_255_2_778
10
3.5782206
20
3.7251232
40
5.1867136
50
13.6204523
51
13.6687413
0
ARC
8
DEFAULT_255_2_778
10
4.2585535
20
3.8900813
40
4.4866679
50
13.5633288
51
13.6190729
0
ARC
8
DEFAULT_255_2_778
10
2.9509004
20
3.5748012
40
5.8317917
50
13.5187069
51
13.5615266
0
ARC
8
DEFAULT_255_2_778
10
2.5818928
20
3.4867494
40
6.2111588
50
13.4725919
51
13.5127284
0
ARC
8
DEFAULT_255_2_778
10
2.1656139
20
3.3877772
40
6.6390409
50
13.4287585
51
13.4662399
0
ARC
8
DEFAULT_255_2_778
10
1.6896831
20
3.2751577
40
7.1281138
50
13.3859757
51
13.4208177
0
ARC
8
DEFAULT_255_2_778
10
1.6695187
20
3.2713441
40
7.1486134
50
13.3436243
51
13.3782947
0
ARC
8
DEFAULT_255_2_778
10
2.9517738
20
3.5754512
40
5.8307897
50
13.3015566
51
13.3439703
0
ARC
8
DEFAULT_255_2_778
10
2.9477334
20
3.574286
40
5.8349898
50
13.2612779
51
13.3035637
0
ARC
8
DEFAULT_255_2_778
10
2.600924
20
3.4917163
40
6.1914922
50
13.2290426
51
13.2687976
0
ARC
8
DEFAULT_255_2_778
10
2.2060959
20
3.398655
40
6.5971392
50
13.1938894
51
13.231106
0
ARC
8
DEFAULT_255_2_778
10
1.7590511
20
3.2932739
40
7.0564366
50
13.1637555
51
13.1984585
0
ARC
8
DEFAULT_255_2_778
10
-1.2116225
20
2.5990169
40
10.1071568
50
13.1366901
51
13.1608523
0
ARC
8
DEFAULT_255_2_778
10
-2.3280962
20
2.3394905
40
11.2533971
50
13.1098992
51
13.1315389
0
ARC
8
DEFAULT_255_2_778
10
-2.3334758
20
2.3394478
40
11.2586462
50
13.0823351
51
13.1039013
0
ARC
8
DEFAULT_255_2_778
10
-3.7442711
20
2.0128824
40
12.7067438
50
13.0576694
51
13.0767202
0
ARC
8
DEFAULT_255_2_778
10
-5.5891211
20
1.5871783
40
14.600072
50
13.0328475
51
13.049376
0
ARC
8
DEFAULT_255_2_778
10
-5.5951854
20
1.587842
40
14.6058304
50
13.0084774
51
13.0249464
0
ARC
8
DEFAULT_255_2_778
10
0.0164939
20
2.8840962
40
8.8463844
50
12.9825031
51
13.0096045
0
ARC
8
DEFAULT_255_2_778
10
-0.8199732
20
2.6907294
40
9.7049107
50
12.9608869
51
12.9855072
0
ARC
8
DEFAULT_255_2_778
10
-1.8440865
20
2.4547217
40
10.7558662
50
12.940352
51
12.9624895
0
ARC
8
DEFAULT_255_2_778
10
-1.8017362
20
2.463258
40
10.71268
50
12.9244314
51
12.9465791
0
ARC
8
DEFAULT_255_2_778
10
-3.0785347
20
2.1699738
40
12.0227296
50
12.9060939
51
12.9257565
0
ARC
8
DEFAULT_255_2_778
10
-3.0285395
20
2.1804106
40
11.9716664
50
12.8911755
51
12.9108486
0
ARC
8
DEFAULT_255_2_778
10
-4.6743459
20
1.8037818
40
13.660017
50
12.8738178
51
12.8909939
0
ARC
8
DEFAULT_255_2_778
10
-4.6098408
20
1.81742
40
13.5940948
50
12.861163
51
12.8783557
0
ARC
8
DEFAULT_255_2_778
10
-4.5397327
20
1.8320435
40
13.5224906
50
12.8496619
51
12.8668774
0
ARC
8
DEFAULT_255_2_778
10
-6.7313735
20
1.3322623
40
15.7703941
50
12.8344444
51
12.8491468
0
ARC
8
DEFAULT_255_2_778
10
1087.5389352
20
249.4786287
40
1106.2831455
50
192.7759868
51
192.7830216
0
ARC
8
DEFAULT_255_2_778
10
19.5232146
20
7.1558273
40
11.1220099
50
192.74092
51
193.8995783
0
ARC
8
DEFAULT_255_2_778
10
14.3064598
20
5.8645981
40
5.7478304
50
193.8971237
51
196.2891143
0
ARC
8
DEFAULT_255_2_778
10
11.5453916
20
5.0277484
40
2.8630171
50
195.7123286
51
205.7055275
0
ARC
8
DEFAULT_255_2_778
10
10.1508749
20
4.3633342
40
1.3183362
50
205.9752252
51
218.0992821
0
ARC
8
DEFAULT_255_2_778
10
9.6589005
20
3.9704591
40
0.6887892
50
217.6326788
51
240.6777904
0
ARC
8
DEFAULT_255_2_778
10
9.5561168
20
3.803924
40
0.4933211
50
241.6138805
51
270.2274408
0
ARC
8
DEFAULT_255_2_778
10
9.559732
20
3.1395967
40
0.171018
50
18.5642044
51
90.5551426
0
ARC
8
DEFAULT_255_2_778
10
9.6398094
20
3.1781553
40
0.0835664
50
0.3088995
51
10.9599814
0
ARC
8
DEFAULT_255_2_778
10
9.6115124
20
3.178232
40
0.1118627
50
0.0382995
51
0.1914962
0
ARC
8
DEFAULT_255_2_778
10
9.5980923
20
3.1677034
40
0.1257307
50
276.126176
51
4.8377102
0
ARC
8
DEFAULT_255_2_778
10
9.554945
20
3.3414902
40
0.3041065
50
269.4872733
51
280.7196846
0
ARC
8
DEFAULT_255_2_778
10
9.5542735
20
3.5392631
40
0.5018714
50
263.4536872
51
269.7659777
0
ARC
8
DEFAULT_255_2_778
10
9.5754537
20
3.7399694
40
0.7036863
50
260.4639303
51
263.6034769
0
ARC
8
DEFAULT_255_2_778
10
9.6008181
20
4.0128503
40
0.9772073
50
243.5195732
51
261.6480243
0
ARC
8
DEFAULT_255_2_778
10
9.6186651
20
3.9762511
40
0.9529532
50
203.5919582
51
241.5775502
0
ARC
8
DEFAULT_255_2_778
10
10.9072723
20
4.6227603
40
2.393834
50
196.271537
51
205.4291762
0
ARC
8
DEFAULT_255_2_778
10
15.4395811
20
5.9697692
40
7.122055
50
192.989668
51
196.4577503
0
ARC
8
DEFAULT_255_2_778
10
8.5650318
20
3.7028574
40
0.6692385
50
95.5957467
51
135.6912431
0
ARC
8
DEFAULT_255_2_778
10
9.0497845
20
3.1879793
40
1.3760992
50
134.4492192
51
152.2954461
0
ARC
8
DEFAULT_255_2_778
10
9.6224305
20
2.8624481
40
2.0345573
50
151.6764209
51
161.4483383
0
ARC
8
DEFAULT_255_2_778
10
9.6702127
20
2.8410714
40
2.086664
50
161.3093044
51
167.2768901
0
ARC
8
DEFAULT_255_2_778
10
9.3793238
20
2.9060171
40
1.7886142
50
167.2540098
51
172.3148673
0
ARC
8
DEFAULT_255_2_778
10
7.5570021
20
3.1451569
40
0.049773
50
359.8277683
51
0.0574103
0
ARC
8
DEFAULT_255_2_778
10
7.479975
20
3.165848
40
0.128501
50
276.7427048
51
350.6663645
0
ARC
8
DEFAULT_255_2_778
10
7.4801787
20
3.1448678
40
0.1076658
50
270.0859322
51
277.9460187
0
ARC
8
DEFAULT_255_2_778
10
7.4794036
20
3.1236787
40
0.0864817
50
243.913382
51
270.6205254
0
ARC
8
DEFAULT_255_2_778
10
7.4902685
20
3.1861588
40
0.1484358
50
175.0105998
51
250.7681387
0
ARC
8
DEFAULT_255_2_778
10
7.6761287
20
3.2111943
40
0.3339537
50
179.9807079
51
182.0808627
0
ARC
8
DEFAULT_255_2_778
10
8.1304581
20
3.2059505
40
0.7883013
50
170.8962843
51
179.6106934
0
ARC
8
DEFAULT_255_2_778
10
8.5757338
20
3.1363998
40
1.2389737
50
164.0345853
51
170.9784976
0
ARC
8
DEFAULT_255_2_778
10
9.066926
20
2.9976945
40
1.7493725
50
158.0134261
51
164.0919253
0
ARC
8
DEFAULT_255_2_778
10
9.4080271
20
2.8634323
40
2.1159347
50
153.9226435
51
158.1002704
0
ARC
8
DEFAULT_255_2_778
10
9.3303476
20
2.9254707
40
2.0190071
50
132.7450602
51
154.5349489
0
ARC
8
DEFAULT_255_2_778
10
8.6493817
20
3.6456859
40
1.0279592
50
114.929011
51
132.1179248
0
ARC
8
DEFAULT_255_2_778
10
8.4769574
20
4.0110777
40
0.6239391
50
93.9869823
51
114.7133236
0
ARC
8
DEFAULT_255_2_778
10
7.3221176
20
4.4698908
40
1.1234357
50
8.3742783
51
11.7324087
0
ARC
8
DEFAULT_255_2_778
10
6.5875876
20
4.3201868
40
1.8730629
50
11.647254
51
14.4823009
0
ARC
8
DEFAULT_255_2_778
10
6.157151
20
4.2104109
40
2.3172755
50
14.4487688
51
17.8153782
0
ARC
8
DEFAULT_255_2_778
10
6.2176575
20
4.2329517
40
2.252776
50
17.7404026
51
23.1666538
0
ARC
8
DEFAULT_255_2_778
10
6.4260386
20
4.3186471
40
2.0274871
50
23.2568944
51
23.6774144
0
ARC
8
DEFAULT_255_2_778
10
7.0761274
20
4.6378321
40
1.3043161
50
22.3045725
51
42.9690154
0
ARC
8
DEFAULT_255_2_778
10
7.6581292
20
5.1896249
40
0.5023985
50
42.1632499
51
88.3180789
0
ARC
8
DEFAULT_255_2_778
10
7.6609412
20
6.013476
40
0.3218905
50
249.4877798
51
272.1246781
0
ARC
8
DEFAULT_255_2_778
10
7.5869873
20
5.8177796
40
0.1126899
50
176.7813422
51
249.8394448
0
LINE
8
DEFAULT_255_2_778
10
7.474475
20
5.8241068
11
7.474475
21
5.8241068
0
LINE
8
DEFAULT_255_1_234
10
6.0190137
20
9.9155433
11
6.0190137
21
8.7405
0
LINE
8
DEFAULT_255_1_234
10
6.0190137
20
8.7405
11
5.8696234
21
8.7405
0
LINE
8
DEFAULT_255_1_234
10
5.8696234
20
8.7405
11
5.8696234
21
9.7308133
0
LINE
8
DEFAULT_255_1_234
10
5.8696234
20
9.7308133
11
5.5700396
21
9.6207785
0
LINE
8
DEFAULT_255_1_234
10
5.5700396
20
9.6207785
11
5.5700396
21
9.7557117
0
LINE
8
DEFAULT_255_1_234
10
5.5700396
20
9.7557117
11
5.9957217
21
9.9155433
0
LINE
8
DEFAULT_255_1_234
10
5.9957217
20
9.9155433
11
6.0190137
21
9.9155433
0
LINE
8
DEFAULT_255_1_234
10
6.2886119
20
-0.9784208
11
6.2886119
21
-1.0997
0
LINE
8
DEFAULT_255_1_234
10
6.2886119
20
-1.0997
11
5.522384
21
-1.0997
0
LINE
8
DEFAULT_255_1_234
10
5.522384
20
-1.0997
11
5.522384
21
-0.9928779
0
LINE
8
DEFAULT_255_1_234
10
5.522384
20
-0.9928779
11
5.9271836
21
-0.5431005
0
LINE
8
DEFAULT_255_1_234
10
5.6484823
20
-0.2748405
11
5.4998952
21
-0.2748405
0
LINE
8
DEFAULT_255_1_234
10
6.0147296
20
-0.6386782
11
5.7014918
21
-0.9784208
0
LINE
8
DEFAULT_255_1_234
10
5.7014918
20
-0.9784208
11
6.2886119
21
-0.9784208
0
ARC
8
DEFAULT_255_1_234
10
4.578167
20
0.6498527
40
1.8008286
50
318.5132453
51
320.7828378
0
ARC
8
DEFAULT_255_1_234
10
5.1068644
20
0.2195426
40
1.1191493
50
320.7372736
51
323.9737074
0
ARC
8
DEFAULT_255_1_234
10
5.4988501
20
-0.0644639
40
0.6350923
50
323.8961724
51
328.6421089
0
ARC
8
DEFAULT_255_1_234
10
5.7035096
20
-0.1906969
40
0.3946393
50
328.8299013
51
331.789948
0
ARC
8
DEFAULT_255_1_234
10
5.8032274
20
-0.2421491
40
0.2824501
50
331.4255242
51
352.9364833
0
ARC
8
DEFAULT_255_1_234
10
5.8168775
20
-0.2452024
40
0.2685315
50
353.2248685
51
0.0169286
0
ARC
8
DEFAULT_255_1_234
10
5.8378652
20
-0.242905
40
0.2475536
50
359.4866256
51
15.9339782
0
ARC
8
DEFAULT_255_1_234
10
5.8885637
20
-0.2292714
40
0.1950618
50
16.1714718
51
43.5284424
0
ARC
8
DEFAULT_255_1_234
10
5.8962946
20
-0.2215427
40
0.184134
50
43.4415429
51
83.1661404
0
ARC
8
DEFAULT_255_1_234
10
5.8828864
20
-0.2952229
40
0.258926
50
82.160215
51
90.1505798
0
ARC
8
DEFAULT_255_1_234
10
5.8797291
20
-0.3489135
40
0.3126255
50
89.5460705
51
102.5418777
0
ARC
8
DEFAULT_255_1_234
10
5.8554377
20
-0.2458335
40
0.2067346
50
102.1739365
51
129.2061916
0
ARC
8
DEFAULT_255_1_234
10
5.8475449
20
-0.2333906
40
0.1921118
50
129.7279328
51
135.7542026
0
ARC
8
DEFAULT_255_1_234
10
5.8596977
20
-0.2430955
40
0.2075944
50
136.175737
51
166.3674722
0
ARC
8
DEFAULT_255_1_234
10
5.9603896
20
-0.2700818
40
0.3118201
50
165.9092917
51
178.8683903
0
ARC
8
DEFAULT_255_1_234
10
6.0468757
20
-0.2747821
40
0.3983935
50
178.438168
51
180.0083905
0
ARC
8
DEFAULT_255_1_234
10
5.9067359
20
-0.2708769
40
0.4068601
50
163.2878735
51
180.5581814
0
ARC
8
DEFAULT_255_1_234
10
5.8265621
20
-0.248816
40
0.3237344
50
133.454115
51
162.9470031
0
ARC
8
DEFAULT_255_1_234
10
5.8444162
20
-0.2678
40
0.349795
50
100.7869394
51
133.4384016
0
ARC
8
DEFAULT_255_1_234
10
5.8791934
20
-0.4226681
40
0.5084616
50
89.6605301
51
101.3704185
0
ARC
8
DEFAULT_255_1_234
10
5.8858273
20
-0.4165504
40
0.502348
50
78.2171172
51
90.4130393
0
ARC
8
DEFAULT_255_1_234
10
5.9213351
20
-0.2541363
40
0.3361092
50
55.9268222
51
78.4888551
0
ARC
8
DEFAULT_255_1_234
10
5.9409791
20
-0.2202676
40
0.2970617
50
47.9292255
51
55.4054003
0
ARC
8
DEFAULT_255_1_234
10
5.9511352
20
-0.2099498
40
0.2825983
50
4.3347696
51
48.0560701
0
ARC
8
DEFAULT_255_1_234
10
5.8415745
20
-0.2269399
40
0.393225
50
359.925209
51
5.5967654
0
ARC
8
DEFAULT_255_1_234
10
5.8844637
20
-0.2213184
40
0.3503892
50
337.8914096
51
358.9967724
0
ARC
8
DEFAULT_255_1_234
10
5.6131049
20
-0.1166294
40
0.6412172
50
326.9135351
51
338.3505194
0
ARC
8
DEFAULT_255_1_234
10
5.2145353
20
0.1388284
40
1.1146189
50
319.6472867
51
327.095818
0
ARC
8
DEFAULT_255_1_234
10
4.8312356
20
0.455
40
1.6114559
50
317.2586784
51
319.9046139
0
ENDSEC
0
EOF