0
SECTION
2
HEADER
9
$MEASUREMENT
70
1
0
ENDSEC
0
SECTION
2
TABLES
0
TABLE
2
LTYPE
0
LTYPE
72
65
70
64
2
CONTINUOUS
3
______
73
0
40
0
0
ENDTAB
0
TABLE
2
LAYER
0
LAYER
2
DEFAULT_255_2_778
70
0
62
255
6
CONTINUOUS
0
LAYER
2
DEFAULT_255_1_388
70
0
62
255
6
CONTINUOUS
0
ENDTAB
0
ENDSEC
0
SECTION
2
ENTITIES
0
ARC
8
DEFAULT_255_2_778
10
8.5514065
20
4.5798963
40
3.3259003
50
162.8748392
51
180.0655446
0
ARC
8
DEFAULT_255_2_778
10
8.5266583
20
4.5823034
40
3.3015444
50
108.1059926
51
162.7882941
0
ARC
8
DEFAULT_255_2_778
10
8.5281823
20
4.5625674
40
3.3207801
50
90.5757696
51
108.0251594
0
ARC
8
DEFAULT_255_2_778
10
8.5328008
20
4.4764254
40
3.4069663
50
89.999872
51
90.6388795
0
ARC
8
DEFAULT_255_2_778
10
8.5366131
20
4.5574935
40
3.3259003
50
72.8748392
51
90.0655446
0
ARC
8
DEFAULT_255_2_778
10
8.5390203
20
4.5822417
40
3.3015444
50
18.1059926
51
72.7882941
0
ARC
8
DEFAULT_255_2_778
10
8.5192843
20
4.5807177
40
3.3207801
50
0.5757696
51
18.0251594
0
ARC
8
DEFAULT_255_2_778
10
8.4331422
20
4.5760992
40
3.4069663
50
359.999872
51
0.6388795
0
ARC
8
DEFAULT_255_2_778
10
8.5142103
20
4.5722869
40
3.3259003
50
342.8748392
51
0.0655446
0
ARC
8
DEFAULT_255_2_778
10
8.5389586
20
4.5698797
40
3.3015444
50
288.1059926
51
342.7882941
0
ARC
8
DEFAULT_255_2_778
10
8.5374346
20
4.5896157
40
3.3207801
50
270.5757696
51
288.0251594
0
ARC
8
DEFAULT_255_2_778
10
8.532816
20
4.6757578
40
3.4069663
50
269.999872
51
270.6388795
0
ARC
8
DEFAULT_255_2_778
10
8.5290037
20
4.5946897
40
3.3259003
50
252.8748392
51
270.0655446
0
ARC
8
DEFAULT_255_2_778
10
8.5265966
20
4.5699414
40
3.3015444
50
198.1059926
51
252.7882941
0
ARC
8
DEFAULT_255_2_778
10
8.5463326
20
4.5714654
40
3.3207801
50
180.5757696
51
198.0251594
0
ARC
8
DEFAULT_255_2_778
10
8.6324746
20
4.576084
40
3.4069663
50
179.999872
51
180.6388795
0
LINE
8
DEFAULT_255_2_778
10
5.2255084
20
4.5760916
11
5.2255084
21
4.5760916
0
LINE
8
DEFAULT_255_2_778
10
9.32655
20
4.5846541
11
8.53275
21
6.5605541
0
LINE
8
DEFAULT_255_2_778
10
8.53275
20
6.5605541
11
7.73905
21
4.5846541
0
LINE
8
DEFAULT_255_2_778
10
7.73905
20
4.5846541
11
9.32655
21
4.5846541
0
LINE
8
DEFAULT_255_2_778
10
8.5299
20
2.5916802
11
8.5299
21
4.7472802
0
LINE
8
DEFAULT_255_1_388
10
6.0343985
20
10.1533148
11
6.0343985
21
8.8314
0
LINE
8
DEFAULT_255_1_388
10
6.0343985
20
8.8314
11
5.8663355
21
8.8314
0
LINE
8
DEFAULT_255_1_388
10
5.8663355
20
8.8314
11
5.8663355
21
9.945495
0
LINE
8
DEFAULT_255_1_388
10
5.8663355
20
9.945495
11
5.529306
21
9.8217066
0
LINE
8
DEFAULT_255_1_388
10
5.529306
20
9.8217066
11
5.529306
21
9.9735055
0
LINE
8
DEFAULT_255_1_388
10
5.529306
20
9.9735055
11
6.0081951
21
10.1533148
0
LINE
8
DEFAULT_255_1_388
10
6.0081951
20
10.1533148
11
6.0343985
21
10.1533148
0
LINE
8
DEFAULT_255_1_388
10
6.3387318
20
-0.8722618
11
6.3387318
21
-1.0087
0
LINE
8
DEFAULT_255_1_388
10
6.3387318
20
-1.0087
11
5.4767313
21
-1.0087
0
LINE
8
DEFAULT_255_1_388
10
5.4767313
20
-1.0087
11
5.4767313
21
-0.8885259
0
LINE
8
DEFAULT_255_1_388
10
5.4767313
20
-0.8885259
11
5.9321278
21
-0.3825298
0
LINE
8
DEFAULT_255_1_388
10
5.6185909
20
-0.0807393
11
5.4514315
21
-0.0807393
0
LINE
8
DEFAULT_255_1_388
10
6.0306163
20
-0.490054
11
5.6782262
21
-0.8722618
0
LINE
8
DEFAULT_255_1_388
10
5.6782262
20
-0.8722618
11
6.3387318
21
-0.8722618
0
ARC
8
DEFAULT_255_1_388
10
4.4145337
20
0.9594983
40
2.0258655
50
318.5132526
51
320.7829045
0
ARC
8
DEFAULT_255_1_388
10
5.0093294
20
0.4753929
40
1.2589638
50
320.7372878
51
323.9739031
0
ARC
8
DEFAULT_255_1_388
10
5.4502226
20
0.1559554
40
0.7145141
50
323.8962701
51
328.64194
0
ARC
8
DEFAULT_255_1_388
10
5.6804484
20
0.0139545
40
0.4440242
50
328.8294576
51
331.7891185
0
ARC
8
DEFAULT_255_1_388
10
5.7926804
20
-0.0439626
40
0.3177517
50
331.4254512
51
352.9365785
0
ARC
8
DEFAULT_255_1_388
10
5.8079804
20
-0.047395
40
0.3021496
50
353.2257659
51
0.0166158
0
ARC
8
DEFAULT_255_1_388
10
5.8316564
20
-0.0448106
40
0.2784847
50
359.486299
51
15.9343185
0
ARC
8
DEFAULT_255_1_388
10
5.8886831
20
-0.0294731
40
0.2194403
50
16.1712913
51
43.5286088
0
ARC
8
DEFAULT_255_1_388
10
5.8973776
20
-0.0207809
40
0.2071504
50
43.4417391
51
83.1661095
0
ARC
8
DEFAULT_255_1_388
10
5.8822937
20
-0.1036684
40
0.2912888
50
82.160179
51
90.1505708
0
ARC
8
DEFAULT_255_1_388
10
5.8787418
20
-0.1640721
40
0.3517025
50
89.5460741
51
102.5418361
0
ARC
8
DEFAULT_255_1_388
10
5.8514138
20
-0.0481067
40
0.2325748
50
102.1738499
51
129.206123
0
ARC
8
DEFAULT_255_1_388
10
5.8425592
20
-0.0341336
40
0.2161591
50
129.72865
51
135.753947
0
ARC
8
DEFAULT_255_1_388
10
5.8562074
20
-0.0450272
40
0.2335433
50
136.1757367
51
166.3673339
0
ARC
8
DEFAULT_255_1_388
10
5.9694762
20
-0.0753852
40
0.3507873
50
165.9090694
51
178.8684636
0
ARC
8
DEFAULT_255_1_388
10
6.0670534
20
-0.0806737
40
0.4484624
50
178.4391136
51
180.0083808
0
ARC
8
DEFAULT_255_1_388
10
5.9091235
20
-0.0762803
40
0.4577138
50
163.2878482
51
180.5581842
0
ARC
8
DEFAULT_255_1_388
10
5.8189276
20
-0.0514607
40
0.3641968
50
133.4540601
51
162.947111
0
ARC
8
DEFAULT_255_1_388
10
5.8390158
20
-0.0728211
40
0.3935189
50
100.7869829
51
133.4382499
0
ARC
8
DEFAULT_255_1_388
10
5.8781403
20
-0.2470601
40
0.5720313
50
89.660664
51
101.3702276
0
ARC
8
DEFAULT_255_1_388
10
5.8856012
20
-0.2401737
40
0.5651495
50
78.2172678
51
90.412935
0
ARC
8
DEFAULT_255_1_388
10
5.9255478
20
-0.0574489
40
0.378122
50
55.9269121
51
78.4888449
0
ARC
8
DEFAULT_255_1_388
10
5.9476193
20
-0.0193813
40
0.3342379
50
47.929771
51
55.4049217
0
ARC
8
DEFAULT_255_1_388
10
5.9590723
20
-0.0077382
40
0.3179217
50
4.334829
51
48.0560205
0
ARC
8
DEFAULT_255_1_388
10
5.8358525
20
-0.0268513
40
0.442341
50
359.9251713
51
5.5971671
0
ARC
8
DEFAULT_255_1_388
10
5.884068
20
-0.0205272
40
0.3941854
50
337.8914027
51
358.9967534
0
ARC
8
DEFAULT_255_1_388
10
5.578825
20
0.0972295
40
0.7213271
50
326.9132501
51
338.3508308
0
ARC
8
DEFAULT_255_1_388
10
5.1304362
20
0.3846105
40
1.2538973
50
319.6471833
51
327.0959558
0
ARC
8
DEFAULT_255_1_388
10
4.699102
20
0.740405
40
1.8129975
50
317.2588228
51
319.9045804
0
ENDSEC
0
EOF