0
SECTION
2
HEADER
9
$MEASUREMENT
70
1
0
ENDSEC
0
SECTION
2
TABLES
0
TABLE
2
LTYPE
0
LTYPE
72
65
70
64
2
CONTINUOUS
3
______
73
0
40
0
0
ENDTAB
0
TABLE
2
LAYER
0
LAYER
2
DEFAULT_255_2_778
70
0
62
255
6
CONTINUOUS
0
LAYER
2
DEFAULT_255_1_234
70
0
62
255
6
CONTINUOUS
0
ENDTAB
0
ENDSEC
0
SECTION
2
ENTITIES
0
LINE
8
DEFAULT_255_2_778
10
3.5718667
20
9.7887499
11
8.8635667
21
9.7887499
0
LINE
8
DEFAULT_255_2_778
10
8.8635667
20
9.7887499
11
8.8635667
21
1.8512499
0
LINE
8
DEFAULT_255_2_778
10
8.8635667
20
1.8512499
11
3.5718667
21
1.8512499
0
LINE
8
DEFAULT_255_2_778
10
3.5718667
20
1.8512499
11
3.5718667
21
9.7887499
0
LINE
8
DEFAULT_255_2_778
10
3.5718667
20
7.143
11
8.8635667
21
7.143
0
ARC
8
DEFAULT_255_2_778
10
7.2877586
20
4.4695928
40
0.3728303
50
89.1522113
51
141.8726899
0
ARC
8
DEFAULT_255_2_778
10
7.3064653
20
4.4363713
40
0.4062252
50
63.2128054
51
91.8607407
0
ARC
8
DEFAULT_255_2_778
10
7.3324416
20
4.5252833
40
0.3155994
50
11.9475
51
60.1464763
0
ARC
8
DEFAULT_255_2_778
10
6.963137
20
4.4202684
40
0.6991383
50
359.9437699
51
14.1023895
0
ARC
8
DEFAULT_255_2_778
10
7.126634
20
4.4235071
40
0.2370514
50
357.0681238
51
27.9110384
0
ARC
8
DEFAULT_255_2_778
10
7.2278797
20
4.4692537
40
0.1263614
50
31.0721082
51
41.8027653
0
ARC
8
DEFAULT_255_2_778
10
7.2100257
20
4.4375496
40
0.161231
50
45.9758703
51
90.8298343
0
ARC
8
DEFAULT_255_2_778
10
7.1848881
20
4.2374574
40
0.362025
50
86.3887722
51
90.0653766
0
ARC
8
DEFAULT_255_2_778
10
7.1704899
20
4.3965316
40
0.2034319
50
86.0580425
51
150.0212432
0
LINE
8
DEFAULT_255_2_778
10
5.796475
20
5.2080823
11
6.043575
21
4.1372823
0
LINE
8
DEFAULT_255_2_778
10
6.043575
20
4.1372823
11
6.246275
21
5.2080823
0
LINE
8
DEFAULT_255_2_778
10
6.246275
20
5.2080823
11
6.555275
21
5.2080823
0
LINE
8
DEFAULT_255_2_778
10
6.555275
20
5.2080823
11
6.221375
21
3.7030823
0
LINE
8
DEFAULT_255_2_778
10
6.221375
20
3.7030823
11
5.909175
21
3.7030823
0
LINE
8
DEFAULT_255_2_778
10
5.909175
20
3.7030823
11
5.664175
21
4.7098823
0
LINE
8
DEFAULT_255_2_778
10
5.664175
20
4.7098823
11
5.419175
21
3.7030823
0
LINE
8
DEFAULT_255_2_778
10
5.419175
20
3.7030823
11
5.106975
21
3.7030823
0
LINE
8
DEFAULT_255_2_778
10
5.106975
20
3.7030823
11
4.773075
21
5.2077823
0
LINE
8
DEFAULT_255_2_778
10
4.773075
20
5.2077823
11
5.082075
21
5.2077823
0
LINE
8
DEFAULT_255_2_778
10
5.082075
20
5.2077823
11
5.285575
21
4.1391823
0
LINE
8
DEFAULT_255_2_778
10
5.285575
20
4.1391823
11
5.533775
21
5.2077823
0
LINE
8
DEFAULT_255_2_778
10
5.533775
20
5.2077823
11
5.796175
21
5.2077823
0
LINE
8
DEFAULT_255_2_778
10
5.796175
20
5.2077823
11
5.796475
21
5.2080823
0
LINE
8
DEFAULT_255_2_778
10
6.994475
20
5.2908823
11
6.994475
21
4.6997823
0
LINE
8
DEFAULT_255_2_778
10
7.662275
20
4.4195823
11
7.662275
21
3.7033823
0
LINE
8
DEFAULT_255_2_778
10
7.662275
20
3.7033823
11
7.363375
21
3.7033823
0
LINE
8
DEFAULT_255_2_778
10
7.363375
20
3.7033823
11
7.363375
21
4.4113823
0
LINE
8
DEFAULT_255_2_778
10
6.994275
20
4.4981823
11
6.994275
21
3.7033823
0
LINE
8
DEFAULT_255_2_778
10
6.994275
20
3.7033823
11
6.695575
21
3.7033823
0
LINE
8
DEFAULT_255_2_778
10
6.695575
20
3.7033823
11
6.695575
21
5.2908823
0
LINE
8
DEFAULT_255_2_778
10
6.695575
20
5.2908823
11
6.994275
21
5.2908823
0
LINE
8
DEFAULT_255_2_778
10
6.994275
20
5.2908823
11
6.994475
21
5.2908823
0
LINE
8
DEFAULT_255_2_778
10
4.2333251
20
8.4659
11
8.2020251
21
8.4659
0
LINE
8
DEFAULT_255_2_778
10
5.8869708
20
9.1273583
11
6.5484708
21
8.4658583
0
LINE
8
DEFAULT_255_2_778
10
6.5484708
20
8.4658583
11
5.8869708
21
7.8044583
0
LINE
8
DEFAULT_255_1_234
10
3.7039137
20
11.9003433
11
3.7039137
21
10.7253
0
LINE
8
DEFAULT_255_1_234
10
3.7039137
20
10.7253
11
3.5545234
21
10.7253
0
LINE
8
DEFAULT_255_1_234
10
3.5545234
20
10.7253
11
3.5545234
21
11.7156133
0
LINE
8
DEFAULT_255_1_234
10
3.5545234
20
11.7156133
11
3.2549396
21
11.6055785
0
LINE
8
DEFAULT_255_1_234
10
3.2549396
20
11.6055785
11
3.2549396
21
11.7405117
0
LINE
8
DEFAULT_255_1_234
10
3.2549396
20
11.7405117
11
3.6806217
21
11.9003433
0
LINE
8
DEFAULT_255_1_234
10
3.6806217
20
11.9003433
11
3.7039137
21
11.9003433
0
LINE
8
DEFAULT_255_1_234
10
3.9735119
20
-0.3167208
11
3.9735119
21
-0.438
0
LINE
8
DEFAULT_255_1_234
10
3.9735119
20
-0.438
11
3.207284
21
-0.438
0
LINE
8
DEFAULT_255_1_234
10
3.207284
20
-0.438
11
3.207284
21
-0.3311779
0
LINE
8
DEFAULT_255_1_234
10
3.207284
20
-0.3311779
11
3.6120836
21
0.1185995
0
LINE
8
DEFAULT_255_1_234
10
3.3333823
20
0.3868595
11
3.1847952
21
0.3868595
0
LINE
8
DEFAULT_255_1_234
10
3.6996296
20
0.0230218
11
3.3863918
21
-0.3167208
0
LINE
8
DEFAULT_255_1_234
10
3.3863918
20
-0.3167208
11
3.9735119
21
-0.3167208
0
ARC
8
DEFAULT_255_1_234
10
2.263067
20
1.3115527
40
1.8008286
50
318.5132453
51
320.7828378
0
ARC
8
DEFAULT_255_1_234
10
2.7917644
20
0.8812426
40
1.1191493
50
320.7372736
51
323.9737074
0
ARC
8
DEFAULT_255_1_234
10
3.1837501
20
0.5972361
40
0.6350923
50
323.8961724
51
328.6421089
0
ARC
8
DEFAULT_255_1_234
10
3.3884096
20
0.4710031
40
0.3946393
50
328.8299013
51
331.789948
0
ARC
8
DEFAULT_255_1_234
10
3.4881274
20
0.4195509
40
0.2824501
50
331.4255242
51
352.9364833
0
ARC
8
DEFAULT_255_1_234
10
3.5017775
20
0.4164976
40
0.2685315
50
353.2248685
51
0.0169286
0
ARC
8
DEFAULT_255_1_234
10
3.5227652
20
0.418795
40
0.2475536
50
359.4866256
51
15.9339782
0
ARC
8
DEFAULT_255_1_234
10
3.5734637
20
0.4324286
40
0.1950618
50
16.1714718
51
43.5284424
0
ARC
8
DEFAULT_255_1_234
10
3.5811946
20
0.4401573
40
0.184134
50
43.4415429
51
83.1661404
0
ARC
8
DEFAULT_255_1_234
10
3.5677864
20
0.3664771
40
0.258926
50
82.160215
51
90.1505798
0
ARC
8
DEFAULT_255_1_234
10
3.5646291
20
0.3127865
40
0.3126255
50
89.5460705
51
102.5418777
0
ARC
8
DEFAULT_255_1_234
10
3.5403377
20
0.4158665
40
0.2067346
50
102.1739365
51
129.2061916
0
ARC
8
DEFAULT_255_1_234
10
3.5324449
20
0.4283094
40
0.1921118
50
129.7279328
51
135.7542026
0
ARC
8
DEFAULT_255_1_234
10
3.5445977
20
0.4186045
40
0.2075944
50
136.175737
51
166.3674722
0
ARC
8
DEFAULT_255_1_234
10
3.6452896
20
0.3916182
40
0.3118201
50
165.9092917
51
178.8683903
0
ARC
8
DEFAULT_255_1_234
10
3.7317757
20
0.3869179
40
0.3983935
50
178.438168
51
180.0083905
0
ARC
8
DEFAULT_255_1_234
10
3.5916359
20
0.3908231
40
0.4068601
50
163.2878735
51
180.5581814
0
ARC
8
DEFAULT_255_1_234
10
3.5114621
20
0.412884
40
0.3237344
50
133.454115
51
162.9470031
0
ARC
8
DEFAULT_255_1_234
10
3.5293162
20
0.3939
40
0.349795
50
100.7869394
51
133.4384016
0
ARC
8
DEFAULT_255_1_234
10
3.5640934
20
0.2390319
40
0.5084616
50
89.6605301
51
101.3704185
0
ARC
8
DEFAULT_255_1_234
10
3.5707273
20
0.2451496
40
0.502348
50
78.2171172
51
90.4130393
0
ARC
8
DEFAULT_255_1_234
10
3.6062351
20
0.4075637
40
0.3361092
50
55.9268222
51
78.4888551
0
ARC
8
DEFAULT_255_1_234
10
3.6258791
20
0.4414324
40
0.2970617
50
47.9292255
51
55.4054003
0
ARC
8
DEFAULT_255_1_234
10
3.6360352
20
0.4517502
40
0.2825983
50
4.3347696
51
48.0560701
0
ARC
8
DEFAULT_255_1_234
10
3.5264745
20
0.4347601
40
0.393225
50
359.925209
51
5.5967654
0
ARC
8
DEFAULT_255_1_234
10
3.5693637
20
0.4403816
40
0.3503892
50
337.8914096
51
358.9967724
0
ARC
8
DEFAULT_255_1_234
10
3.2980049
20
0.5450706
40
0.6412172
50
326.9135351
51
338.3505194
0
ARC
8
DEFAULT_255_1_234
10
2.8994353
20
0.8005284
40
1.1146189
50
319.6472867
51
327.095818
0
ARC
8
DEFAULT_255_1_234
10
2.5161356
20
1.1167
40
1.6114559
50
317.2586784
51
319.9046139
0
ENDSEC
0
EOF