0
SECTION
2
HEADER
9
$MEASUREMENT
70
1
0
ENDSEC
0
SECTION
2
TABLES
0
TABLE
2
LTYPE
0
LTYPE
72
65
70
64
2
CONTINUOUS
3
______
73
0
40
0
0
ENDTAB
0
TABLE
2
LAYER
0
LAYER
2
DEFAULT_255_2_778
70
0
62
255
6
CONTINUOUS
0
LAYER
2
DEFAULT_255_1_234
70
0
62
255
6
CONTINUOUS
0
ENDTAB
0
ENDSEC
0
SECTION
2
ENTITIES
0
LINE
8
DEFAULT_255_2_778
10
5.8208667
20
9.7887499
11
11.1125667
21
9.7887499
0
LINE
8
DEFAULT_255_2_778
10
11.1125667
20
9.7887499
11
11.1125667
21
1.8512499
0
LINE
8
DEFAULT_255_2_778
10
11.1125667
20
1.8512499
11
5.8208667
21
1.8512499
0
LINE
8
DEFAULT_255_2_778
10
5.8208667
20
1.8512499
11
5.8208667
21
9.7887499
0
LINE
8
DEFAULT_255_2_778
10
5.8208667
20
7.143
11
11.1125667
21
7.143
0
ARC
8
DEFAULT_255_2_778
10
9.5367586
20
4.4695928
40
0.3728303
50
89.1522113
51
141.8726899
0
ARC
8
DEFAULT_255_2_778
10
9.5554653
20
4.4363713
40
0.4062252
50
63.2128054
51
91.8607407
0
ARC
8
DEFAULT_255_2_778
10
9.5814416
20
4.5252833
40
0.3155994
50
11.9475
51
60.1464763
0
ARC
8
DEFAULT_255_2_778
10
9.212137
20
4.4202684
40
0.6991383
50
359.9437699
51
14.1023895
0
ARC
8
DEFAULT_255_2_778
10
9.375634
20
4.4235071
40
0.2370514
50
357.0681238
51
27.9110384
0
ARC
8
DEFAULT_255_2_778
10
9.4768797
20
4.4692537
40
0.1263614
50
31.0721082
51
41.8027653
0
ARC
8
DEFAULT_255_2_778
10
9.4590257
20
4.4375496
40
0.161231
50
45.9758703
51
90.8298343
0
ARC
8
DEFAULT_255_2_778
10
9.4338881
20
4.2374574
40
0.362025
50
86.3887722
51
90.0653766
0
ARC
8
DEFAULT_255_2_778
10
9.4194899
20
4.3965316
40
0.2034319
50
86.0580425
51
150.0212432
0
LINE
8
DEFAULT_255_2_778
10
8.045475
20
5.2080823
11
8.292575
21
4.1372823
0
LINE
8
DEFAULT_255_2_778
10
8.292575
20
4.1372823
11
8.495275
21
5.2080823
0
LINE
8
DEFAULT_255_2_778
10
8.495275
20
5.2080823
11
8.804275
21
5.2080823
0
LINE
8
DEFAULT_255_2_778
10
8.804275
20
5.2080823
11
8.470375
21
3.7030823
0
LINE
8
DEFAULT_255_2_778
10
8.470375
20
3.7030823
11
8.158175
21
3.7030823
0
LINE
8
DEFAULT_255_2_778
10
8.158175
20
3.7030823
11
7.913175
21
4.7098823
0
LINE
8
DEFAULT_255_2_778
10
7.913175
20
4.7098823
11
7.668175
21
3.7030823
0
LINE
8
DEFAULT_255_2_778
10
7.668175
20
3.7030823
11
7.355975
21
3.7030823
0
LINE
8
DEFAULT_255_2_778
10
7.355975
20
3.7030823
11
7.022075
21
5.2077823
0
LINE
8
DEFAULT_255_2_778
10
7.022075
20
5.2077823
11
7.331075
21
5.2077823
0
LINE
8
DEFAULT_255_2_778
10
7.331075
20
5.2077823
11
7.534875
21
4.1391823
0
LINE
8
DEFAULT_255_2_778
10
7.534875
20
4.1391823
11
7.782975
21
5.2077823
0
LINE
8
DEFAULT_255_2_778
10
7.782975
20
5.2077823
11
8.045475
21
5.2077823
0
LINE
8
DEFAULT_255_2_778
10
8.045475
20
5.2077823
11
8.045475
21
5.2080823
0
LINE
8
DEFAULT_255_2_778
10
9.243475
20
5.2908823
11
9.243475
21
4.6997823
0
LINE
8
DEFAULT_255_2_778
10
9.911275
20
4.4195823
11
9.911275
21
3.7033823
0
LINE
8
DEFAULT_255_2_778
10
9.911275
20
3.7033823
11
9.612375
21
3.7033823
0
LINE
8
DEFAULT_255_2_778
10
9.612375
20
3.7033823
11
9.612375
21
4.4113823
0
LINE
8
DEFAULT_255_2_778
10
9.243275
20
4.4981823
11
9.243275
21
3.7033823
0
LINE
8
DEFAULT_255_2_778
10
9.243275
20
3.7033823
11
8.944575
21
3.7033823
0
LINE
8
DEFAULT_255_2_778
10
8.944575
20
3.7033823
11
8.944575
21
5.2908823
0
LINE
8
DEFAULT_255_2_778
10
8.944575
20
5.2908823
11
9.243275
21
5.2908823
0
LINE
8
DEFAULT_255_2_778
10
9.243275
20
5.2908823
11
9.243475
21
5.2908823
0
LINE
8
DEFAULT_255_2_778
10
1.8521251
20
4.4971
11
5.8208251
21
4.4971
0
LINE
8
DEFAULT_255_2_778
10
3.5057708
20
5.1585583
11
4.1672708
21
4.4970583
0
LINE
8
DEFAULT_255_2_778
10
4.1672708
20
4.4970583
11
3.5057708
21
3.8356583
0
LINE
8
DEFAULT_255_1_234
10
4.6973137
20
11.9003433
11
4.6973137
21
10.7253
0
LINE
8
DEFAULT_255_1_234
10
4.6973137
20
10.7253
11
4.5479234
21
10.7253
0
LINE
8
DEFAULT_255_1_234
10
4.5479234
20
10.7253
11
4.5479234
21
11.7156133
0
LINE
8
DEFAULT_255_1_234
10
4.5479234
20
11.7156133
11
4.2483396
21
11.6055785
0
LINE
8
DEFAULT_255_1_234
10
4.2483396
20
11.6055785
11
4.2483396
21
11.7405117
0
LINE
8
DEFAULT_255_1_234
10
4.2483396
20
11.7405117
11
4.6740217
21
11.9003433
0
LINE
8
DEFAULT_255_1_234
10
4.6740217
20
11.9003433
11
4.6973137
21
11.9003433
0
LINE
8
DEFAULT_255_1_234
10
5.8988618
20
10.8465792
11
5.8988618
21
10.7253
0
LINE
8
DEFAULT_255_1_234
10
5.8988618
20
10.7253
11
5.1326339
21
10.7253
0
LINE
8
DEFAULT_255_1_234
10
5.1326339
20
10.7253
11
5.1326339
21
10.8321221
0
LINE
8
DEFAULT_255_1_234
10
5.1326339
20
10.8321221
11
5.5374335
21
11.2818995
0
LINE
8
DEFAULT_255_1_234
10
5.2587322
20
11.5501595
11
5.1101451
21
11.5501595
0
LINE
8
DEFAULT_255_1_234
10
5.6249795
20
11.1863218
11
5.3117417
21
10.8465792
0
LINE
8
DEFAULT_255_1_234
10
5.3117417
20
10.8465792
11
5.8988618
21
10.8465792
0
ARC
8
DEFAULT_255_1_234
10
4.1884169
20
12.4748527
40
1.8008286
50
318.5132453
51
320.7828378
0
ARC
8
DEFAULT_255_1_234
10
4.7171143
20
12.0445426
40
1.1191493
50
320.7372736
51
323.9737074
0
ARC
8
DEFAULT_255_1_234
10
5.1091
20
11.7605361
40
0.6350923
50
323.8961724
51
328.6421089
0
ARC
8
DEFAULT_255_1_234
10
5.3137595
20
11.6343031
40
0.3946393
50
328.8299013
51
331.789948
0
ARC
8
DEFAULT_255_1_234
10
5.4134774
20
11.5828509
40
0.2824501
50
331.4255242
51
352.9364833
0
ARC
8
DEFAULT_255_1_234
10
5.4271274
20
11.5797976
40
0.2685315
50
353.2248685
51
0.0169286
0
ARC
8
DEFAULT_255_1_234
10
5.4481151
20
11.582095
40
0.2475536
50
359.4866256
51
15.9339782
0
ARC
8
DEFAULT_255_1_234
10
5.4988136
20
11.5957286
40
0.1950618
50
16.1714718
51
43.5284424
0
ARC
8
DEFAULT_255_1_234
10
5.5065445
20
11.6034573
40
0.184134
50
43.4415429
51
83.1661404
0
ARC
8
DEFAULT_255_1_234
10
5.4931363
20
11.5297771
40
0.258926
50
82.160215
51
90.1505798
0
ARC
8
DEFAULT_255_1_234
10
5.489979
20
11.4760865
40
0.3126255
50
89.5460705
51
102.5418777
0
ARC
8
DEFAULT_255_1_234
10
5.4656876
20
11.5791665
40
0.2067346
50
102.1739365
51
129.2061916
0
ARC
8
DEFAULT_255_1_234
10
5.4577948
20
11.5916094
40
0.1921118
50
129.7279328
51
135.7542026
0
ARC
8
DEFAULT_255_1_234
10
5.4699476
20
11.5819045
40
0.2075944
50
136.175737
51
166.3674722
0
ARC
8
DEFAULT_255_1_234
10
5.5706395
20
11.5549182
40
0.3118201
50
165.9092917
51
178.8683903
0
ARC
8
DEFAULT_255_1_234
10
5.6571256
20
11.5502179
40
0.3983935
50
178.438168
51
180.0083905
0
ARC
8
DEFAULT_255_1_234
10
5.5169859
20
11.5541231
40
0.4068601
50
163.2878735
51
180.5581814
0
ARC
8
DEFAULT_255_1_234
10
5.436812
20
11.576184
40
0.3237344
50
133.454115
51
162.9470031
0
ARC
8
DEFAULT_255_1_234
10
5.4546661
20
11.5572
40
0.349795
50
100.7869394
51
133.4384016
0
ARC
8
DEFAULT_255_1_234
10
5.4894433
20
11.4023319
40
0.5084616
50
89.6605301
51
101.3704185
0
ARC
8
DEFAULT_255_1_234
10
5.4960772
20
11.4084496
40
0.502348
50
78.2171172
51
90.4130393
0
ARC
8
DEFAULT_255_1_234
10
5.531585
20
11.5708637
40
0.3361092
50
55.9268222
51
78.4888551
0
ARC
8
DEFAULT_255_1_234
10
5.551229
20
11.6047324
40
0.2970617
50
47.9292255
51
55.4054003
0
ARC
8
DEFAULT_255_1_234
10
5.5613851
20
11.6150502
40
0.2825983
50
4.3347696
51
48.0560701
0
ARC
8
DEFAULT_255_1_234
10
5.4518244
20
11.5980601
40
0.393225
50
359.925209
51
5.5967654
0
ARC
8
DEFAULT_255_1_234
10
5.4947136
20
11.6036816
40
0.3503892
50
337.8914096
51
358.9967724
0
ARC
8
DEFAULT_255_1_234
10
5.2233548
20
11.7083706
40
0.6412172
50
326.9135351
51
338.3505194
0
ARC
8
DEFAULT_255_1_234
10
4.8247852
20
11.9638284
40
1.1146189
50
319.6472867
51
327.095818
0
ARC
8
DEFAULT_255_1_234
10
4.4414855
20
12.28
40
1.6114559
50
317.2586784
51
319.9046139
0
LINE
8
DEFAULT_255_1_234
10
12.5514378
20
5.9690169
11
12.5514378
21
6.0902962
0
LINE
8
DEFAULT_255_1_234
10
12.5514378
20
6.0902962
11
12.663079
21
6.0902962
0
LINE
8
DEFAULT_255_1_234
10
12.4727268
20
6.2959087
11
12.3241396
21
6.2959087
0
LINE
8
DEFAULT_255_1_234
10
12.3136983
20
5.7417187
11
12.4630887
21
5.7417187
0
LINE
8
DEFAULT_255_1_234
10
12.663079
20
5.9690169
11
12.5514378
21
5.9690169
0
ARC
8
DEFAULT_255_1_234
10
12.6601656
20
6.4295713
40
0.3392876
50
270.4919872
51
281.8951556
0
ARC
8
DEFAULT_255_1_234
10
12.6842918
20
6.3193702
40
0.2264817
50
281.6691735
51
301.2943132
0
ARC
8
DEFAULT_255_1_234
10
12.7013128
20
6.2882304
40
0.1910381
50
301.7833094
51
311.7545298
0
ARC
8
DEFAULT_255_1_234
10
12.7104704
20
6.2780748
40
0.1773635
50
311.7323931
51
354.2802411
0
ARC
8
DEFAULT_255_1_234
10
12.6378329
20
6.2905722
40
0.2509385
50
353.0937916
51
0.1181479
0
ARC
8
DEFAULT_255_1_234
10
12.5917114
20
6.2953386
40
0.2970898
50
359.1805295
51
15.0453146
0
ARC
8
DEFAULT_255_1_234
10
12.7262951
20
6.3345992
40
0.1569564
50
13.9577229
51
77.6713066
0
ARC
8
DEFAULT_255_1_234
10
12.687648
20
6.1960949
40
0.3006298
50
76.1116566
51
90.7026153
0
ARC
8
DEFAULT_255_1_234
10
12.6817318
20
6.2234545
40
0.2732568
50
89.5324876
51
103.531937
0
ARC
8
DEFAULT_255_1_234
10
12.6616762
20
6.3033884
40
0.1908508
50
103.2931773
51
133.5619022
0
ARC
8
DEFAULT_255_1_234
10
12.6572251
20
6.3093375
40
0.1834746
50
133.8349307
51
173.5344437
0
ARC
8
DEFAULT_255_1_234
10
12.7295294
20
6.2965213
40
0.2568033
50
172.5096846
51
180.1366907
0
ARC
8
DEFAULT_255_1_234
10
12.6344188
20
6.2999622
40
0.3103056
50
155.3484492
51
180.7484736
0
ARC
8
DEFAULT_255_1_234
10
12.6295277
20
6.2970846
40
0.3070957
50
131.5744599
51
154.4798489
0
ARC
8
DEFAULT_255_1_234
10
12.6608424
20
6.265431
40
0.3515643
50
96.9875458
51
131.9690667
0
ARC
8
DEFAULT_255_1_234
10
12.6827904
20
6.1408636
40
0.4779224
50
89.8596053
51
97.7825159
0
ARC
8
DEFAULT_255_1_234
10
12.6875967
20
6.1146616
40
0.5041361
50
78.3655447
51
90.4131539
0
ARC
8
DEFAULT_255_1_234
10
12.7233885
20
6.2805887
40
0.3344039
50
56.6229102
51
78.638727
0
ARC
8
DEFAULT_255_1_234
10
12.7448829
20
6.3181805
40
0.2912001
50
47.0253525
51
56.0854072
0
ARC
8
DEFAULT_255_1_234
10
12.7468609
20
6.3221223
40
0.2869704
50
10.9208013
51
46.7778124
0
ARC
8
DEFAULT_255_1_234
10
12.6104675
20
6.2905857
40
0.426899
50
359.6364486
51
11.6087304
0
ARC
8
DEFAULT_255_1_234
10
12.7939519
20
6.2890752
40
0.243409
50
332.3549906
51
359.7179418
0
ARC
8
DEFAULT_255_1_234
10
12.7289121
20
6.3199142
40
0.3153459
50
325.2333722
51
332.8745602
0
ARC
8
DEFAULT_255_1_234
10
12.7441744
20
6.3092828
40
0.2967456
50
292.9802137
51
325.2392345
0
ARC
8
DEFAULT_255_1_234
10
12.7167118
20
6.3626863
40
0.3566604
50
292.5402179
51
293.6924929
0
ARC
8
DEFAULT_255_1_234
10
12.7559714
20
5.7172091
40
0.3307468
50
57.6435486
51
72.8625112
0
ARC
8
DEFAULT_255_1_234
10
12.7914214
20
5.7746549
40
0.2632492
50
36.7248896
51
57.4697979
0
ARC
8
DEFAULT_255_1_234
10
12.7902847
20
5.775922
40
0.2634081
50
8.0545065
51
36.356114
0
ARC
8
DEFAULT_255_1_234
10
12.7040032
20
5.7604174
40
0.3510261
50
359.8320645
51
8.5869982
0
ARC
8
DEFAULT_255_1_234
10
12.6664808
20
5.7556101
40
0.3885653
50
343.9829931
51
0.5571613
0
ARC
8
DEFAULT_255_1_234
10
12.7551005
20
5.7313438
40
0.2966924
50
311.6359546
51
343.7651759
0
ARC
8
DEFAULT_255_1_234
10
12.7172574
20
5.7740102
40
0.3537231
50
279.7829875
51
311.6255694
0
ARC
8
DEFAULT_255_1_234
10
12.6871351
20
5.917728
40
0.5004971
50
269.7286406
51
280.3856417
0
ARC
8
DEFAULT_255_1_234
10
12.6809423
20
5.9135996
40
0.4963778
50
256.6828919
51
270.4412052
0
ARC
8
DEFAULT_255_1_234
10
12.6470719
20
5.7751394
40
0.3538406
50
229.4223008
51
256.8556159
0
ARC
8
DEFAULT_255_1_234
10
12.6056112
20
5.7284736
40
0.2914296
50
181.818294
51
229.6455059
0
ARC
8
DEFAULT_255_1_234
10
12.7096068
20
5.7415496
40
0.3959084
50
179.9755256
51
183.2323064
0
ARC
8
DEFAULT_255_1_234
10
12.6923814
20
5.7395037
40
0.2293034
50
179.4465117
51
196.2869258
0
ARC
8
DEFAULT_255_1_234
10
12.6436222
20
5.7261651
40
0.1787621
50
196.5661473
51
227.705904
0
ARC
8
DEFAULT_255_1_234
10
12.6600317
20
5.7445155
40
0.2033784
50
227.7652068
51
257.8762805
0
ARC
8
DEFAULT_255_1_234
10
12.6825287
20
5.8388156
40
0.3003081
50
257.4584385
51
270.426602
0
ARC
8
DEFAULT_255_1_234
10
12.6870853
20
5.8677996
40
0.329292
50
269.5962073
51
280.8789248
0
ARC
8
DEFAULT_255_1_234
10
12.7100382
20
5.7531685
40
0.2123908
50
280.6346389
51
299.8595945
0
ARC
8
DEFAULT_255_1_234
10
12.7291289
20
5.7169212
40
0.171457
50
300.3576302
51
314.5517981
0
ARC
8
DEFAULT_255_1_234
10
12.7208349
20
5.7229919
40
0.1816095
50
315.0728369
51
345.0431014
0
ARC
8
DEFAULT_255_1_234
10
12.6285163
20
5.7498841
40
0.2777492
50
344.5986631
51
357.9269593
0
ARC
8
DEFAULT_255_1_234
10
12.5389489
20
5.7560276
40
0.3674917
50
357.4748886
51
0.0231117
0
ARC
8
DEFAULT_255_1_234
10
12.6412599
20
5.7584679
40
0.2651907
50
359.5047933
51
13.4239635
0
ARC
8
DEFAULT_255_1_234
10
12.7279242
20
5.7806478
40
0.1757509
50
12.9498199
51
48.7551375
0
ARC
8
DEFAULT_255_1_234
10
12.7096976
20
5.75574
40
0.2065134
50
49.5088623
51
72.1836453
0
ARC
8
DEFAULT_255_1_234
10
12.6739129
20
5.6495291
40
0.3185836
50
71.9010081
51
84.3554254
0
ARC
8
DEFAULT_255_1_234
10
12.6577761
20
5.5134326
40
0.4556151
50
84.0193428
51
89.333121
0
LINE
8
DEFAULT_255_1_234
10
7.2621628
20
0.7314211
11
7.2621628
21
-0.045248
0
LINE
8
DEFAULT_255_1_234
10
7.2621628
20
-0.045248
11
7.4244039
21
-0.045248
0
LINE
8
DEFAULT_255_1_234
10
7.4244039
20
-0.045248
11
7.4244039
21
-0.1665272
0
LINE
8
DEFAULT_255_1_234
10
7.4244039
20
-0.1665272
11
7.2621628
21
-0.1665272
0
LINE
8
DEFAULT_255_1_234
10
7.2621628
20
-0.1665272
11
7.2621628
21
-0.438
0
LINE
8
DEFAULT_255_1_234
10
7.2621628
20
-0.438
11
7.1127725
21
-0.438
0
LINE
8
DEFAULT_255_1_234
10
7.1127725
20
-0.438
11
7.1127725
21
-0.1665272
0
LINE
8
DEFAULT_255_1_234
10
7.1127725
20
-0.1665272
11
6.5802682
21
-0.1665272
0
LINE
8
DEFAULT_255_1_234
10
6.5802682
20
-0.1665272
11
6.5802682
21
-0.0789813
0
LINE
8
DEFAULT_255_1_234
10
6.5802682
20
-0.0789813
11
7.1039375
21
0.7314211
0
LINE
8
DEFAULT_255_1_234
10
7.1039375
20
0.7314211
11
7.2621628
21
0.7314211
0
LINE
8
DEFAULT_255_1_234
10
7.0951026
20
0.4960912
11
6.7489347
21
-0.045248
0
LINE
8
DEFAULT_255_1_234
10
6.7489347
20
-0.045248
11
7.1127725
21
-0.045248
0
LINE
8
DEFAULT_255_1_234
10
7.1127725
20
-0.045248
11
7.1127725
21
0.5282181
0
LINE
8
DEFAULT_255_1_234
10
7.1127725
20
0.5282181
11
7.0951026
21
0.4960912
0
LINE
8
DEFAULT_255_1_234
10
7.7456734
20
0.1177963
11
7.6268037
21
0.1483169
0
LINE
8
DEFAULT_255_1_234
10
7.6268037
20
0.1483169
11
7.6862386
21
0.7314211
0
LINE
8
DEFAULT_255_1_234
10
7.6862386
20
0.7314211
11
8.2854063
21
0.7314211
0
LINE
8
DEFAULT_255_1_234
10
8.2854063
20
0.7314211
11
8.2854063
21
0.5940784
0
LINE
8
DEFAULT_255_1_234
10
8.2854063
20
0.5940784
11
7.8123369
21
0.5940784
0
LINE
8
DEFAULT_255_1_234
10
7.8123369
20
0.5940784
11
7.7769972
21
0.2752184
0
LINE
8
DEFAULT_255_1_234
10
7.5850387
20
-0.1303844
11
7.7255941
21
-0.1303844
0
LINE
8
DEFAULT_255_1_234
10
7.785029
20
0.1499232
11
7.7456734
21
0.1177963
0
ARC
8
DEFAULT_255_1_234
10
7.9624756
20
-0.042777
40
0.3681349
50
93.7182161
51
120.2538958
0
ARC
8
DEFAULT_255_1_234
10
7.9719019
20
-0.1235606
40
0.449379
50
89.9660152
51
94.2496022
0
ARC
8
DEFAULT_255_1_234
10
7.9759753
20
-0.0646451
40
0.390482
50
73.8043271
51
90.5585896
0
ARC
8
DEFAULT_255_1_234
10
7.999465
20
0.0211602
40
0.3015334
50
41.3071453
51
73.5430202
0
ARC
8
DEFAULT_255_1_234
10
7.9578477
20
-0.0146676
40
0.3564457
50
13.5075983
51
41.2174222
0
ARC
8
DEFAULT_255_1_234
10
7.7936681
20
-0.0576514
40
0.5261351
50
1.1331335
51
13.8829381
0
ARC
8
DEFAULT_255_1_234
10
7.652505
20
-0.0652335
40
0.6674378
50
359.9919444
51
1.544251
0
ARC
8
DEFAULT_255_1_234
10
7.7801876
20
-0.069372
40
0.5397702
50
347.8572367
51
0.4293338
0
ARC
8
DEFAULT_255_1_234
10
7.9552194
20
-0.1090264
40
0.3603188
50
323.673004
51
348.1672506
0
ARC
8
DEFAULT_255_1_234
10
7.9846702
20
-0.1269832
40
0.3259678
50
316.8171152
51
323.1492751
0
ARC
8
DEFAULT_255_1_234
10
7.9907891
20
-0.130654
40
0.3189975
50
281.8396411
51
316.5457803
0
ARC
8
DEFAULT_255_1_234
10
7.9532155
20
0.0248762
40
0.4789527
50
269.5770101
51
282.4214771
0
ARC
8
DEFAULT_255_1_234
10
7.9460966
20
0.0035125
40
0.45759
50
256.2427136
51
270.4486331
0
ARC
8
DEFAULT_255_1_234
10
7.9161869
20
-0.1164771
40
0.3339303
50
228.9023911
51
256.3314342
0
ARC
8
DEFAULT_255_1_234
10
7.9088101
20
-0.1281254
40
0.32031
50
193.753695
51
228.5271154
0
ARC
8
DEFAULT_255_1_234
10
8.0326055
20
-0.09182
40
0.4492253
50
184.924711
51
194.497588
0
ARC
8
DEFAULT_255_1_234
10
8.0518622
20
-0.0882409
40
0.3289787
50
187.3600538
51
198.6732863
0
ARC
8
DEFAULT_255_1_234
10
7.9468916
20
-0.1246326
40
0.217884
50
198.4451669
51
217.794479
0
ARC
8
DEFAULT_255_1_234
10
7.9173091
20
-0.1455915
40
0.1816698
50
218.2887171
51
228.5612368
0
ARC
8
DEFAULT_255_1_234
10
7.9270878
20
-0.1324037
40
0.1980329
50
228.9654866
51
258.1234728
0
ARC
8
DEFAULT_255_1_234
10
7.9476588
20
-0.0443167
40
0.2884748
50
257.7258293
51
270.401361
0
ARC
8
DEFAULT_255_1_234
10
7.9521474
20
-0.0888179
40
0.2439788
50
269.4204404
51
286.4209037
0
ARC
8
DEFAULT_255_1_234
10
7.9669962
20
-0.1427343
40
0.1880666
50
286.7251356
51
320.600362
0
ARC
8
DEFAULT_255_1_234
10
7.9286787
20
-0.1116405
40
0.2374121
50
320.6712579
51
344.5441685
0
ARC
8
DEFAULT_255_1_234
10
7.8130113
20
-0.0776955
40
0.3579479
50
344.2412205
51
356.7357071
0
ARC
8
DEFAULT_255_1_234
10
7.6881262
20
-0.0673556
40
0.4832297
50
356.3548756
51
0.0500261
0
ARC
8
DEFAULT_255_1_234
10
7.8217771
20
-0.064235
40
0.3495889
50
359.5576869
51
12.953486
0
ARC
8
DEFAULT_255_1_234
10
7.9272668
20
-0.0386566
40
0.2410532
50
12.6490276
51
41.6081334
0
ARC
8
DEFAULT_255_1_234
10
7.9503039
20
-0.0190679
40
0.2108218
50
41.7850273
51
85.9892764
0
ARC
8
DEFAULT_255_1_234
10
7.9379776
20
-0.1003538
40
0.2928454
50
84.6957577
51
90.0676183
0
ARC
8
DEFAULT_255_1_234
10
7.935626
20
-0.1672284
40
0.3597255
50
89.6804936
51
99.1614436
0
ARC
8
DEFAULT_255_1_234
10
7.9150891
20
-0.0444869
40
0.235281
50
98.9830931
51
113.8908934
0
ARC
8
DEFAULT_255_1_234
10
7.8921301
20
0.0096587
40
0.176479
50
114.1950727
51
127.3641004
0
LINE
8
DEFAULT_255_1_234
10
3.6315835
20
6.6035243
11
3.6580882
21
6.6035243
0
LINE
8
DEFAULT_255_1_234
10
3.6580882
20
6.6035243
11
3.6580882
21
6.477426
0
LINE
8
DEFAULT_255_1_234
10
3.6580882
20
6.477426
11
3.6307803
21
6.477426
0
LINE
8
DEFAULT_255_1_234
10
3.0838189
20
5.8782583
11
3.0838189
21
5.9352836
0
LINE
8
DEFAULT_255_1_234
10
3.2332093
20
5.9160075
11
3.2332093
21
5.8613917
0
ARC
8
DEFAULT_255_1_234
10
3.6360151
20
5.9776455
40
0.4998079
50
90.6001036
51
104.514704
0
ARC
8
DEFAULT_255_1_234
10
3.5971667
20
6.1221131
40
0.3502176
50
104.2855254
51
133.862935
0
ARC
8
DEFAULT_255_1_234
10
3.6135424
20
6.111283
40
0.3693984
50
134.5302688
51
161.6210873
0
ARC
8
DEFAULT_255_1_234
10
3.7788613
20
6.0529895
40
0.5446739
50
161.2849839
51
174.2076652
0
ARC
8
DEFAULT_255_1_234
10
3.919555
20
6.0335787
40
0.6866274
50
173.7810589
51
174.9254635
0
ARC
8
DEFAULT_255_1_234
10
3.4645382
20
5.8952839
40
0.3033419
50
95.8330959
51
138.9954921
0
ARC
8
DEFAULT_255_1_234
10
3.4868738
20
5.7674375
40
0.4328947
50
89.8753725
51
97.0544009
0
ARC
8
DEFAULT_255_1_234
10
3.4916204
20
5.8509748
40
0.3493769
50
71.6407809
51
90.6240094
0
ARC
8
DEFAULT_255_1_234
10
3.5066777
20
5.9064082
40
0.2920396
50
39.6367836
51
71.019018
0
ARC
8
DEFAULT_255_1_234
10
3.443025
20
5.8513998
40
0.3761538
50
10.658731
51
39.9043955
0
ARC
8
DEFAULT_255_1_234
10
3.2882333
20
5.8177686
40
0.5345136
50
359.682601
51
11.132623
0
ARC
8
DEFAULT_255_1_234
10
3.2842464
20
5.810701
40
0.5385081
50
347.2486944
51
0.4369317
0
ARC
8
DEFAULT_255_1_234
10
3.4509941
20
5.7705807
40
0.3670249
50
318.1409698
51
347.6118597
0
ARC
8
DEFAULT_255_1_234
10
3.4834934
20
5.7438702
40
0.3250007
50
275.6342139
51
317.8248465
0
ARC
8
DEFAULT_255_1_234
10
3.4614045
20
5.8738219
40
0.4565864
50
269.8874292
51
276.7917694
0
ARC
8
DEFAULT_255_1_234
10
3.4559116
20
5.7712743
40
0.3540676
50
246.9140195
51
270.7437342
0
ARC
8
DEFAULT_255_1_234
10
3.4565506
20
5.7570384
40
0.3412781
50
218.1665114
51
245.878116
0
ARC
8
DEFAULT_255_1_234
10
3.5444967
20
5.8306279
40
0.455911
50
191.4115814
51
218.6077802
0
ARC
8
DEFAULT_255_1_234
10
3.7383056
20
5.8740833
40
0.6545001
50
179.6345085
51
191.7836486
0
ARC
8
DEFAULT_255_1_234
10
4.2965393
20
5.9419697
40
1.2127388
50
171.4525249
51
180.3158839
0
ARC
8
DEFAULT_255_1_234
10
3.8570269
20
6.0103608
40
0.7679464
50
157.9802646
51
171.6246686
0
ARC
8
DEFAULT_255_1_234
10
3.635629
20
6.0986421
40
0.5296008
50
141.4298019
51
157.854097
0
ARC
8
DEFAULT_255_1_234
10
3.571461
20
6.1440381
40
0.4511509
50
102.8715806
51
140.8564722
0
ARC
8
DEFAULT_255_1_234
10
3.6362226
20
5.9000552
40
0.7034845
50
90.3778349
51
103.5869322
0
ARC
8
DEFAULT_255_1_234
10
3.4624002
20
5.839573
40
0.2370698
50
89.8751008
51
126.2071704
0
ARC
8
DEFAULT_255_1_234
10
3.4669792
20
5.8241303
40
0.2522934
50
124.9745049
51
144.895901
0
ARC
8
DEFAULT_255_1_234
10
3.4493982
20
5.838456
40
0.2296779
50
145.2974905
51
160.2660252
0
ARC
8
DEFAULT_255_1_234
10
3.7566521
20
5.8582071
40
0.5234525
50
179.6514266
51
190.2855912
0
ARC
8
DEFAULT_255_1_234
10
3.5872658
20
5.8262786
40
0.3510893
50
190.0945431
51
207.5098196
0
ARC
8
DEFAULT_255_1_234
10
3.5306928
20
5.7993623
40
0.288489
50
207.9583163
51
216.3251085
0
ARC
8
DEFAULT_255_1_234
10
3.4967036
20
5.7714105
40
0.2445587
50
215.7661442
51
232.5456785
0
ARC
8
DEFAULT_255_1_234
10
3.4584019
20
5.7227482
40
0.1826382
50
232.8005391
51
270.6605633
0
ARC
8
DEFAULT_255_1_234
10
3.462972
20
5.7591612
40
0.2190529
50
269.35537
51
288.4744281
0
ARC
8
DEFAULT_255_1_234
10
3.4722617
20
5.7242118
40
0.1829749
50
289.1833337
51
322.9683818
0
ARC
8
DEFAULT_255_1_234
10
3.4111139
20
5.7724391
40
0.2608399
50
322.6007884
51
346.5182367
0
ARC
8
DEFAULT_255_1_234
10
3.2953735
20
5.8019616
40
0.3802777
50
346.2582162
51
358.7741648
0
ARC
8
DEFAULT_255_1_234
10
3.1935404
20
5.8074965
40
0.4822176
50
358.3755224
51
0.0098023
0
ARC
8
DEFAULT_255_1_234
10
3.2691591
20
5.8102657
40
0.4066078
50
359.6214041
51
11.2839074
0
ARC
8
DEFAULT_255_1_234
10
3.3968738
20
5.8369066
40
0.2761514
50
11.0482309
51
31.8146458
0
ARC
8
DEFAULT_255_1_234
10
3.4277781
20
5.8536584
40
0.2410679
50
32.3035391
51
38.082671
0
ARC
8
DEFAULT_255_1_234
10
3.4698441
20
5.8917662
40
0.1844966
50
36.825067
51
85.7415724
0
ARC
8
DEFAULT_255_1_234
10
3.4631274
20
5.8417301
40
0.2349122
50
85.0140713
51
90.0513278
0
ENDSEC
0
EOF