0
SECTION
2
HEADER
9
$MEASUREMENT
70
1
0
ENDSEC
0
SECTION
2
TABLES
0
TABLE
2
LTYPE
0
LTYPE
72
65
70
64
2
CONTINUOUS
3
______
73
0
40
0
0
ENDTAB
0
TABLE
2
LAYER
0
LAYER
2
DEFAULT_255_2_778
70
0
62
255
6
CONTINUOUS
0
LAYER
2
DEFAULT_255_1_234
70
0
62
255
6
CONTINUOUS
0
ENDTAB
0
ENDSEC
0
SECTION
2
ENTITIES
0
LINE
8
DEFAULT_255_2_778
10
4.6301667
20
15.0798831
11
9.9218667
21
15.0798831
0
LINE
8
DEFAULT_255_2_778
10
9.9218667
20
15.0798831
11
9.9218667
21
1.8506831
0
LINE
8
DEFAULT_255_2_778
10
9.9218667
20
1.8506831
11
4.6301667
21
1.8506831
0
LINE
8
DEFAULT_255_2_778
10
4.6301667
20
1.8506831
11
4.6301667
21
15.0798831
0
LINE
8
DEFAULT_255_2_778
10
4.6301667
20
12.434079
11
9.9218667
21
12.434079
0
LINE
8
DEFAULT_255_2_778
10
4.6301667
20
7.142379
11
9.9218667
21
7.142379
0
LINE
8
DEFAULT_255_2_778
10
5.6884667
20
4.562679
11
6.2176667
21
4.562679
0
LINE
8
DEFAULT_255_2_778
10
6.2176667
20
4.562679
11
6.3168667
21
4.628879
0
LINE
8
DEFAULT_255_2_778
10
6.3168667
20
4.628879
11
6.4160667
21
5.025779
0
LINE
8
DEFAULT_255_2_778
10
6.4160667
20
5.025779
11
6.2837667
21
5.158079
0
LINE
8
DEFAULT_255_2_778
10
6.2837667
20
5.158079
11
5.8207667
21
5.158079
0
LINE
8
DEFAULT_255_2_778
10
5.8207667
20
5.158079
11
5.4900667
21
3.835079
0
LINE
8
DEFAULT_255_2_778
10
6.6806667
20
3.835079
11
6.6806667
21
4.496579
0
LINE
8
DEFAULT_255_2_778
10
6.6806667
20
4.496579
11
6.8129667
21
4.628879
0
LINE
8
DEFAULT_255_2_778
10
6.8129667
20
4.628879
11
6.9452667
21
4.628879
0
LINE
8
DEFAULT_255_2_778
10
6.9452667
20
4.628879
11
7.0775667
21
4.496579
0
LINE
8
DEFAULT_255_2_778
10
7.0775667
20
4.496579
11
7.0775667
21
3.835079
0
LINE
8
DEFAULT_255_2_778
10
7.0775667
20
4.496579
11
7.2098667
21
4.628879
0
LINE
8
DEFAULT_255_2_778
10
7.2098667
20
4.628879
11
7.3421667
21
4.628879
0
LINE
8
DEFAULT_255_2_778
10
7.3421667
20
4.628879
11
7.4744667
21
4.496579
0
LINE
8
DEFAULT_255_2_778
10
7.4744667
20
4.496579
11
7.4744667
21
3.835079
0
LINE
8
DEFAULT_255_2_778
10
8.2681667
20
4.496579
11
8.1358667
21
4.628879
0
LINE
8
DEFAULT_255_2_778
10
8.1358667
20
4.628879
11
7.8712667
21
4.628879
0
LINE
8
DEFAULT_255_2_778
10
7.8712667
20
4.628879
11
7.7390667
21
4.496579
0
LINE
8
DEFAULT_255_2_778
10
7.7390667
20
4.496579
11
7.7390667
21
3.967379
0
LINE
8
DEFAULT_255_2_778
10
7.7390667
20
3.967379
11
7.8712667
21
3.835079
0
LINE
8
DEFAULT_255_2_778
10
7.8712667
20
3.835079
11
8.1358667
21
3.835079
0
LINE
8
DEFAULT_255_2_778
10
8.1358667
20
3.835079
11
8.2681667
21
3.967379
0
LINE
8
DEFAULT_255_2_778
10
8.5327667
20
4.628879
11
9.0619667
21
3.835079
0
LINE
8
DEFAULT_255_2_778
10
9.061925
20
4.628875
11
8.532825
21
3.835175
0
LINE
8
DEFAULT_255_2_778
10
8.268225
20
4.628875
11
8.268225
21
3.835175
0
ARC
8
DEFAULT_255_2_778
10
8.1678611
20
9.7650996
40
0.3107251
50
89.150476
51
141.8619301
0
ARC
8
DEFAULT_255_2_778
10
8.185861
20
9.7529988
40
0.3230696
50
58.780252
51
92.3758956
0
ARC
8
DEFAULT_255_2_778
10
8.1939778
20
9.8035216
40
0.2763271
50
9.6150967
51
54.7864749
0
ARC
8
DEFAULT_255_2_778
10
7.8712518
20
9.7219716
40
0.6087178
50
0.133564
51
12.1101969
0
ARC
8
DEFAULT_255_2_778
10
8.0471032
20
9.7287203
40
0.1842711
50
356.1946148
51
32.6670965
0
ARC
8
DEFAULT_255_2_778
10
8.1207757
20
9.7672418
40
0.1017248
50
36.8031963
51
41.8346767
0
ARC
8
DEFAULT_255_2_778
10
8.0999492
20
9.7326859
40
0.1407904
50
46.6651935
51
93.3124655
0
ARC
8
DEFAULT_255_2_778
10
8.0820554
20
9.5550465
40
0.3183441
50
88.2433448
51
90.0157266
0
ARC
8
DEFAULT_255_2_778
10
8.0703342
20
9.7042101
40
0.16958
50
86.0661868
51
150.0037116
0
LINE
8
DEFAULT_255_2_778
10
6.9249681
20
10.3805906
11
7.1308681
21
9.4881906
0
LINE
8
DEFAULT_255_2_778
10
7.1308681
20
9.4881906
11
7.2995681
21
10.3805906
0
LINE
8
DEFAULT_255_2_778
10
7.2995681
20
10.3805906
11
7.5570681
21
10.3805906
0
LINE
8
DEFAULT_255_2_778
10
7.5570681
20
10.3805906
11
7.2786681
21
9.1264906
0
LINE
8
DEFAULT_255_2_778
10
7.2786681
20
9.1264906
11
7.0185681
21
9.1264906
0
LINE
8
DEFAULT_255_2_778
10
7.0185681
20
9.1264906
11
6.8143681
21
9.9654906
0
LINE
8
DEFAULT_255_2_778
10
6.8143681
20
9.9654906
11
6.6100681
21
9.1264906
0
LINE
8
DEFAULT_255_2_778
10
6.6100681
20
9.1264906
11
6.3499681
21
9.1264906
0
LINE
8
DEFAULT_255_2_778
10
6.3499681
20
9.1264906
11
6.0716681
21
10.3805906
0
LINE
8
DEFAULT_255_2_778
10
6.0716681
20
10.3805906
11
6.3290681
21
10.3805906
0
LINE
8
DEFAULT_255_2_778
10
6.3290681
20
10.3805906
11
6.4986681
21
9.4900906
0
LINE
8
DEFAULT_255_2_778
10
6.4986681
20
9.4900906
11
6.7053681
21
10.3805906
0
LINE
8
DEFAULT_255_2_778
10
6.7053681
20
10.3805906
11
6.9241681
21
10.3805906
0
LINE
8
DEFAULT_255_2_778
10
6.9241681
20
10.3805906
11
6.9249681
21
10.3805906
0
LINE
8
DEFAULT_255_2_778
10
7.9234681
20
10.4496906
11
7.9234681
21
9.9569906
0
LINE
8
DEFAULT_255_2_778
10
8.4799681
20
9.7233906
11
8.4799681
21
9.1264906
0
LINE
8
DEFAULT_255_2_778
10
8.4799681
20
9.1264906
11
8.2309681
21
9.1264906
0
LINE
8
DEFAULT_255_2_778
10
8.2309681
20
9.1264906
11
8.2309681
21
9.7164906
0
LINE
8
DEFAULT_255_2_778
10
7.9234681
20
9.7889906
11
7.9234681
21
9.1264906
0
LINE
8
DEFAULT_255_2_778
10
7.9234681
20
9.1264906
11
7.6744681
21
9.1264906
0
LINE
8
DEFAULT_255_2_778
10
7.6744681
20
9.1264906
11
7.6744681
21
10.4496906
0
LINE
8
DEFAULT_255_2_778
10
7.6744681
20
10.4496906
11
7.9234681
21
10.4496906
0
LINE
8
DEFAULT_255_2_778
10
7.9234681
20
10.4496906
11
7.9234681
21
10.4496906
0
LINE
8
DEFAULT_255_1_234
10
3.5064137
20
17.1911433
11
3.5064137
21
16.0161
0
LINE
8
DEFAULT_255_1_234
10
3.5064137
20
16.0161
11
3.3570234
21
16.0161
0
LINE
8
DEFAULT_255_1_234
10
3.3570234
20
16.0161
11
3.3570234
21
17.0064133
0
LINE
8
DEFAULT_255_1_234
10
3.3570234
20
17.0064133
11
3.0574396
21
16.8963785
0
LINE
8
DEFAULT_255_1_234
10
3.0574396
20
16.8963785
11
3.0574396
21
17.0313117
0
LINE
8
DEFAULT_255_1_234
10
3.0574396
20
17.0313117
11
3.4831217
21
17.1911433
0
LINE
8
DEFAULT_255_1_234
10
3.4831217
20
17.1911433
11
3.5064137
21
17.1911433
0
LINE
8
DEFAULT_255_1_234
10
4.7079618
20
16.1373792
11
4.7079618
21
16.0161
0
LINE
8
DEFAULT_255_1_234
10
4.7079618
20
16.0161
11
3.9417339
21
16.0161
0
LINE
8
DEFAULT_255_1_234
10
3.9417339
20
16.0161
11
3.9417339
21
16.1229221
0
LINE
8
DEFAULT_255_1_234
10
3.9417339
20
16.1229221
11
4.3465335
21
16.5726995
0
LINE
8
DEFAULT_255_1_234
10
4.0678322
20
16.8409595
11
3.9192451
21
16.8409595
0
LINE
8
DEFAULT_255_1_234
10
4.4340795
20
16.4771218
11
4.1208417
21
16.1373792
0
LINE
8
DEFAULT_255_1_234
10
4.1208417
20
16.1373792
11
4.7079618
21
16.1373792
0
ARC
8
DEFAULT_255_1_234
10
2.9975169
20
17.7656527
40
1.8008286
50
318.5132453
51
320.7828378
0
ARC
8
DEFAULT_255_1_234
10
3.5262143
20
17.3353426
40
1.1191493
50
320.7372736
51
323.9737074
0
ARC
8
DEFAULT_255_1_234
10
3.9182
20
17.0513361
40
0.6350923
50
323.8961724
51
328.6421089
0
ARC
8
DEFAULT_255_1_234
10
4.1228595
20
16.9251031
40
0.3946393
50
328.8299013
51
331.789948
0
ARC
8
DEFAULT_255_1_234
10
4.2225774
20
16.8736509
40
0.2824501
50
331.4255242
51
352.9364833
0
ARC
8
DEFAULT_255_1_234
10
4.2362274
20
16.8705976
40
0.2685315
50
353.2248685
51
0.0169286
0
ARC
8
DEFAULT_255_1_234
10
4.2572151
20
16.872895
40
0.2475536
50
359.4866256
51
15.9339782
0
ARC
8
DEFAULT_255_1_234
10
4.3079136
20
16.8865286
40
0.1950618
50
16.1714718
51
43.5284424
0
ARC
8
DEFAULT_255_1_234
10
4.3156445
20
16.8942573
40
0.184134
50
43.4415429
51
83.1661404
0
ARC
8
DEFAULT_255_1_234
10
4.3022363
20
16.8205771
40
0.258926
50
82.160215
51
90.1505798
0
ARC
8
DEFAULT_255_1_234
10
4.299079
20
16.7668865
40
0.3126255
50
89.5460705
51
102.5418777
0
ARC
8
DEFAULT_255_1_234
10
4.2747876
20
16.8699665
40
0.2067346
50
102.1739365
51
129.2061916
0
ARC
8
DEFAULT_255_1_234
10
4.2668948
20
16.8824094
40
0.1921118
50
129.7279328
51
135.7542026
0
ARC
8
DEFAULT_255_1_234
10
4.2790476
20
16.8727045
40
0.2075944
50
136.175737
51
166.3674722
0
ARC
8
DEFAULT_255_1_234
10
4.3797395
20
16.8457182
40
0.3118201
50
165.9092917
51
178.8683903
0
ARC
8
DEFAULT_255_1_234
10
4.4662256
20
16.8410179
40
0.3983935
50
178.438168
51
180.0083905
0
ARC
8
DEFAULT_255_1_234
10
4.3260859
20
16.8449231
40
0.4068601
50
163.2878735
51
180.5581814
0
ARC
8
DEFAULT_255_1_234
10
4.245912
20
16.866984
40
0.3237344
50
133.454115
51
162.9470031
0
ARC
8
DEFAULT_255_1_234
10
4.2637661
20
16.848
40
0.349795
50
100.7869394
51
133.4384016
0
ARC
8
DEFAULT_255_1_234
10
4.2985433
20
16.6931319
40
0.5084616
50
89.6605301
51
101.3704185
0
ARC
8
DEFAULT_255_1_234
10
4.3051772
20
16.6992496
40
0.502348
50
78.2171172
51
90.4130393
0
ARC
8
DEFAULT_255_1_234
10
4.340685
20
16.8616637
40
0.3361092
50
55.9268222
51
78.4888551
0
ARC
8
DEFAULT_255_1_234
10
4.360329
20
16.8955324
40
0.2970617
50
47.9292255
51
55.4054003
0
ARC
8
DEFAULT_255_1_234
10
4.3704851
20
16.9058502
40
0.2825983
50
4.3347696
51
48.0560701
0
ARC
8
DEFAULT_255_1_234
10
4.2609244
20
16.8888601
40
0.393225
50
359.925209
51
5.5967654
0
ARC
8
DEFAULT_255_1_234
10
4.3038136
20
16.8944816
40
0.3503892
50
337.8914096
51
358.9967724
0
ARC
8
DEFAULT_255_1_234
10
4.0324548
20
16.9991706
40
0.6412172
50
326.9135351
51
338.3505194
0
ARC
8
DEFAULT_255_1_234
10
3.6338852
20
17.2546284
40
1.1146189
50
319.6472867
51
327.095818
0
ARC
8
DEFAULT_255_1_234
10
3.2505855
20
17.5708
40
1.6114559
50
317.2586784
51
319.9046139
0
LINE
8
DEFAULT_255_1_234
10
11.3605378
20
5.9685169
11
11.3605378
21
6.0897962
0
LINE
8
DEFAULT_255_1_234
10
11.3605378
20
6.0897962
11
11.472179
21
6.0897962
0
LINE
8
DEFAULT_255_1_234
10
11.2818268
20
6.2954087
11
11.1332396
21
6.2954087
0
LINE
8
DEFAULT_255_1_234
10
11.1227983
20
5.7412187
11
11.2721887
21
5.7412187
0
LINE
8
DEFAULT_255_1_234
10
11.472179
20
5.9685169
11
11.3605378
21
5.9685169
0
ARC
8
DEFAULT_255_1_234
10
11.4692656
20
6.4290713
40
0.3392876
50
270.4919872
51
281.8951556
0
ARC
8
DEFAULT_255_1_234
10
11.4933918
20
6.3188702
40
0.2264817
50
281.6691735
51
301.2943132
0
ARC
8
DEFAULT_255_1_234
10
11.5104128
20
6.2877304
40
0.1910381
50
301.7833094
51
311.7545298
0
ARC
8
DEFAULT_255_1_234
10
11.5195704
20
6.2775748
40
0.1773635
50
311.7323931
51
354.2802411
0
ARC
8
DEFAULT_255_1_234
10
11.4469329
20
6.2900722
40
0.2509385
50
353.0937916
51
0.1181479
0
ARC
8
DEFAULT_255_1_234
10
11.4008114
20
6.2948386
40
0.2970898
50
359.1805295
51
15.0453146
0
ARC
8
DEFAULT_255_1_234
10
11.5353951
20
6.3340992
40
0.1569564
50
13.9577229
51
77.6713066
0
ARC
8
DEFAULT_255_1_234
10
11.496748
20
6.1955949
40
0.3006298
50
76.1116566
51
90.7026153
0
ARC
8
DEFAULT_255_1_234
10
11.4908318
20
6.2229545
40
0.2732568
50
89.5324876
51
103.531937
0
ARC
8
DEFAULT_255_1_234
10
11.4707762
20
6.3028884
40
0.1908508
50
103.2931773
51
133.5619022
0
ARC
8
DEFAULT_255_1_234
10
11.4663251
20
6.3088375
40
0.1834746
50
133.8349307
51
173.5344437
0
ARC
8
DEFAULT_255_1_234
10
11.5386294
20
6.2960213
40
0.2568033
50
172.5096846
51
180.1366907
0
ARC
8
DEFAULT_255_1_234
10
11.4435188
20
6.2994622
40
0.3103056
50
155.3484492
51
180.7484736
0
ARC
8
DEFAULT_255_1_234
10
11.4386277
20
6.2965846
40
0.3070957
50
131.5744599
51
154.4798489
0
ARC
8
DEFAULT_255_1_234
10
11.4699424
20
6.264931
40
0.3515643
50
96.9875458
51
131.9690667
0
ARC
8
DEFAULT_255_1_234
10
11.4918904
20
6.1403636
40
0.4779224
50
89.8596053
51
97.7825159
0
ARC
8
DEFAULT_255_1_234
10
11.4966967
20
6.1141616
40
0.5041361
50
78.3655447
51
90.4131539
0
ARC
8
DEFAULT_255_1_234
10
11.5324885
20
6.2800887
40
0.3344039
50
56.6229102
51
78.638727
0
ARC
8
DEFAULT_255_1_234
10
11.5539829
20
6.3176805
40
0.2912001
50
47.0253525
51
56.0854072
0
ARC
8
DEFAULT_255_1_234
10
11.5559609
20
6.3216223
40
0.2869704
50
10.9208013
51
46.7778124
0
ARC
8
DEFAULT_255_1_234
10
11.4195675
20
6.2900857
40
0.426899
50
359.6364486
51
11.6087304
0
ARC
8
DEFAULT_255_1_234
10
11.6030519
20
6.2885752
40
0.243409
50
332.3549906
51
359.7179418
0
ARC
8
DEFAULT_255_1_234
10
11.5380121
20
6.3194142
40
0.3153459
50
325.2333722
51
332.8745602
0
ARC
8
DEFAULT_255_1_234
10
11.5532744
20
6.3087828
40
0.2967456
50
292.9802137
51
325.2392345
0
ARC
8
DEFAULT_255_1_234
10
11.5258118
20
6.3621863
40
0.3566604
50
292.5402179
51
293.6924929
0
ARC
8
DEFAULT_255_1_234
10
11.5650714
20
5.7167091
40
0.3307468
50
57.6435486
51
72.8625112
0
ARC
8
DEFAULT_255_1_234
10
11.6005214
20
5.7741549
40
0.2632492
50
36.7248896
51
57.4697979
0
ARC
8
DEFAULT_255_1_234
10
11.5993847
20
5.775422
40
0.2634081
50
8.0545065
51
36.356114
0
ARC
8
DEFAULT_255_1_234
10
11.5131032
20
5.7599174
40
0.3510261
50
359.8320645
51
8.5869982
0
ARC
8
DEFAULT_255_1_234
10
11.4755808
20
5.7551101
40
0.3885653
50
343.9829931
51
0.5571613
0
ARC
8
DEFAULT_255_1_234
10
11.5642005
20
5.7308438
40
0.2966924
50
311.6359546
51
343.7651759
0
ARC
8
DEFAULT_255_1_234
10
11.5263574
20
5.7735102
40
0.3537231
50
279.7829875
51
311.6255694
0
ARC
8
DEFAULT_255_1_234
10
11.4962351
20
5.917228
40
0.5004971
50
269.7286406
51
280.3856417
0
ARC
8
DEFAULT_255_1_234
10
11.4900423
20
5.9130996
40
0.4963778
50
256.6828919
51
270.4412052
0
ARC
8
DEFAULT_255_1_234
10
11.4561719
20
5.7746394
40
0.3538406
50
229.4223008
51
256.8556159
0
ARC
8
DEFAULT_255_1_234
10
11.4147112
20
5.7279736
40
0.2914296
50
181.818294
51
229.6455059
0
ARC
8
DEFAULT_255_1_234
10
11.5187068
20
5.7410496
40
0.3959084
50
179.9755256
51
183.2323064
0
ARC
8
DEFAULT_255_1_234
10
11.5014814
20
5.7390037
40
0.2293034
50
179.4465117
51
196.2869258
0
ARC
8
DEFAULT_255_1_234
10
11.4527222
20
5.7256651
40
0.1787621
50
196.5661473
51
227.705904
0
ARC
8
DEFAULT_255_1_234
10
11.4691317
20
5.7440155
40
0.2033784
50
227.7652068
51
257.8762805
0
ARC
8
DEFAULT_255_1_234
10
11.4916287
20
5.8383156
40
0.3003081
50
257.4584385
51
270.426602
0
ARC
8
DEFAULT_255_1_234
10
11.4961853
20
5.8672996
40
0.329292
50
269.5962073
51
280.8789248
0
ARC
8
DEFAULT_255_1_234
10
11.5191382
20
5.7526685
40
0.2123908
50
280.6346389
51
299.8595945
0
ARC
8
DEFAULT_255_1_234
10
11.5382289
20
5.7164212
40
0.171457
50
300.3576302
51
314.5517981
0
ARC
8
DEFAULT_255_1_234
10
11.5299349
20
5.7224919
40
0.1816095
50
315.0728369
51
345.0431014
0
ARC
8
DEFAULT_255_1_234
10
11.4376163
20
5.7493841
40
0.2777492
50
344.5986631
51
357.9269593
0
ARC
8
DEFAULT_255_1_234
10
11.3480489
20
5.7555276
40
0.3674917
50
357.4748886
51
0.0231117
0
ARC
8
DEFAULT_255_1_234
10
11.4503599
20
5.7579679
40
0.2651907
50
359.5047933
51
13.4239635
0
ARC
8
DEFAULT_255_1_234
10
11.5370242
20
5.7801478
40
0.1757509
50
12.9498199
51
48.7551375
0
ARC
8
DEFAULT_255_1_234
10
11.5187976
20
5.75524
40
0.2065134
50
49.5088623
51
72.1836453
0
ARC
8
DEFAULT_255_1_234
10
11.4830129
20
5.6490291
40
0.3185836
50
71.9010081
51
84.3554254
0
ARC
8
DEFAULT_255_1_234
10
11.4668761
20
5.5129326
40
0.4556151
50
84.0193428
51
89.333121
0
LINE
8
DEFAULT_255_1_234
10
6.0717628
20
0.7311211
11
6.0717628
21
-0.045548
0
LINE
8
DEFAULT_255_1_234
10
6.0717628
20
-0.045548
11
6.2340039
21
-0.045548
0
LINE
8
DEFAULT_255_1_234
10
6.2340039
20
-0.045548
11
6.2340039
21
-0.1668272
0
LINE
8
DEFAULT_255_1_234
10
6.2340039
20
-0.1668272
11
6.0717628
21
-0.1668272
0
LINE
8
DEFAULT_255_1_234
10
6.0717628
20
-0.1668272
11
6.0717628
21
-0.4383
0
LINE
8
DEFAULT_255_1_234
10
6.0717628
20
-0.4383
11
5.9223725
21
-0.4383
0
LINE
8
DEFAULT_255_1_234
10
5.9223725
20
-0.4383
11
5.9223725
21
-0.1668272
0
LINE
8
DEFAULT_255_1_234
10
5.9223725
20
-0.1668272
11
5.3898682
21
-0.1668272
0
LINE
8
DEFAULT_255_1_234
10
5.3898682
20
-0.1668272
11
5.3898682
21
-0.0792813
0
LINE
8
DEFAULT_255_1_234
10
5.3898682
20
-0.0792813
11
5.9135375
21
0.7311211
0
LINE
8
DEFAULT_255_1_234
10
5.9135375
20
0.7311211
11
6.0717628
21
0.7311211
0
LINE
8
DEFAULT_255_1_234
10
5.9047026
20
0.4957912
11
5.5585347
21
-0.045548
0
LINE
8
DEFAULT_255_1_234
10
5.5585347
20
-0.045548
11
5.9223725
21
-0.045548
0
LINE
8
DEFAULT_255_1_234
10
5.9223725
20
-0.045548
11
5.9223725
21
0.5279181
0
LINE
8
DEFAULT_255_1_234
10
5.9223725
20
0.5279181
11
5.9047026
21
0.4957912
0
LINE
8
DEFAULT_255_1_234
10
6.5552734
20
0.1174963
11
6.4364037
21
0.1480169
0
LINE
8
DEFAULT_255_1_234
10
6.4364037
20
0.1480169
11
6.4958386
21
0.7311211
0
LINE
8
DEFAULT_255_1_234
10
6.4958386
20
0.7311211
11
7.0950063
21
0.7311211
0
LINE
8
DEFAULT_255_1_234
10
7.0950063
20
0.7311211
11
7.0950063
21
0.5937784
0
LINE
8
DEFAULT_255_1_234
10
7.0950063
20
0.5937784
11
6.6219369
21
0.5937784
0
LINE
8
DEFAULT_255_1_234
10
6.6219369
20
0.5937784
11
6.5865972
21
0.2749184
0
LINE
8
DEFAULT_255_1_234
10
6.3946387
20
-0.1306844
11
6.5351941
21
-0.1306844
0
LINE
8
DEFAULT_255_1_234
10
6.594629
20
0.1496232
11
6.5552734
21
0.1174963
0
ARC
8
DEFAULT_255_1_234
10
6.7720756
20
-0.043077
40
0.3681349
50
93.7182161
51
120.2538958
0
ARC
8
DEFAULT_255_1_234
10
6.7815019
20
-0.1238606
40
0.449379
50
89.9660152
51
94.2496022
0
ARC
8
DEFAULT_255_1_234
10
6.7855753
20
-0.0649451
40
0.390482
50
73.8043271
51
90.5585896
0
ARC
8
DEFAULT_255_1_234
10
6.809065
20
0.0208602
40
0.3015334
50
41.3071453
51
73.5430202
0
ARC
8
DEFAULT_255_1_234
10
6.7674477
20
-0.0149676
40
0.3564457
50
13.5075983
51
41.2174222
0
ARC
8
DEFAULT_255_1_234
10
6.6032681
20
-0.0579514
40
0.5261351
50
1.1331335
51
13.8829381
0
ARC
8
DEFAULT_255_1_234
10
6.462105
20
-0.0655335
40
0.6674378
50
359.9919444
51
1.544251
0
ARC
8
DEFAULT_255_1_234
10
6.5897876
20
-0.069672
40
0.5397702
50
347.8572367
51
0.4293338
0
ARC
8
DEFAULT_255_1_234
10
6.7648194
20
-0.1093264
40
0.3603188
50
323.673004
51
348.1672506
0
ARC
8
DEFAULT_255_1_234
10
6.7942702
20
-0.1272832
40
0.3259678
50
316.8171152
51
323.1492751
0
ARC
8
DEFAULT_255_1_234
10
6.8003891
20
-0.130954
40
0.3189975
50
281.8396411
51
316.5457803
0
ARC
8
DEFAULT_255_1_234
10
6.7628155
20
0.0245762
40
0.4789527
50
269.5770101
51
282.4214771
0
ARC
8
DEFAULT_255_1_234
10
6.7556966
20
0.0032125
40
0.45759
50
256.2427136
51
270.4486331
0
ARC
8
DEFAULT_255_1_234
10
6.7257869
20
-0.1167771
40
0.3339303
50
228.9023911
51
256.3314342
0
ARC
8
DEFAULT_255_1_234
10
6.7184101
20
-0.1284254
40
0.32031
50
193.753695
51
228.5271154
0
ARC
8
DEFAULT_255_1_234
10
6.8422055
20
-0.09212
40
0.4492253
50
184.924711
51
194.497588
0
ARC
8
DEFAULT_255_1_234
10
6.8614622
20
-0.0885409
40
0.3289787
50
187.3600538
51
198.6732863
0
ARC
8
DEFAULT_255_1_234
10
6.7564916
20
-0.1249326
40
0.217884
50
198.4451669
51
217.794479
0
ARC
8
DEFAULT_255_1_234
10
6.7269091
20
-0.1458915
40
0.1816698
50
218.2887171
51
228.5612368
0
ARC
8
DEFAULT_255_1_234
10
6.7366878
20
-0.1327037
40
0.1980329
50
228.9654866
51
258.1234728
0
ARC
8
DEFAULT_255_1_234
10
6.7572588
20
-0.0446167
40
0.2884748
50
257.7258293
51
270.401361
0
ARC
8
DEFAULT_255_1_234
10
6.7617474
20
-0.0891179
40
0.2439788
50
269.4204404
51
286.4209037
0
ARC
8
DEFAULT_255_1_234
10
6.7765962
20
-0.1430343
40
0.1880666
50
286.7251356
51
320.600362
0
ARC
8
DEFAULT_255_1_234
10
6.7382787
20
-0.1119405
40
0.2374121
50
320.6712579
51
344.5441685
0
ARC
8
DEFAULT_255_1_234
10
6.6226113
20
-0.0779955
40
0.3579479
50
344.2412205
51
356.7357071
0
ARC
8
DEFAULT_255_1_234
10
6.4977262
20
-0.0676556
40
0.4832297
50
356.3548756
51
0.0500261
0
ARC
8
DEFAULT_255_1_234
10
6.6313771
20
-0.064535
40
0.3495889
50
359.5576869
51
12.953486
0
ARC
8
DEFAULT_255_1_234
10
6.7368668
20
-0.0389566
40
0.2410532
50
12.6490276
51
41.6081334
0
ARC
8
DEFAULT_255_1_234
10
6.7599039
20
-0.0193679
40
0.2108218
50
41.7850273
51
85.9892764
0
ARC
8
DEFAULT_255_1_234
10
6.7475776
20
-0.1006538
40
0.2928454
50
84.6957577
51
90.0676183
0
ARC
8
DEFAULT_255_1_234
10
6.745226
20
-0.1675284
40
0.3597255
50
89.6804936
51
99.1614436
0
ARC
8
DEFAULT_255_1_234
10
6.7246891
20
-0.0447869
40
0.235281
50
98.9830931
51
113.8908934
0
ARC
8
DEFAULT_255_1_234
10
6.7017301
20
0.0093587
40
0.176479
50
114.1950727
51
127.3641004
0
LINE
8
DEFAULT_255_1_234
10
2.3750674
20
9.2480211
11
2.3750674
21
9.164491
0
LINE
8
DEFAULT_255_1_234
10
2.3750674
20
9.164491
11
1.8907536
21
8.0786
0
LINE
8
DEFAULT_255_1_234
10
1.8907536
20
8.0786
11
1.7349379
21
8.0786
0
LINE
8
DEFAULT_255_1_234
10
1.7349379
20
8.0786
11
2.2176454
21
9.1259387
0
LINE
8
DEFAULT_255_1_234
10
2.2176454
20
9.1259387
11
1.5847444
21
9.1259387
0
LINE
8
DEFAULT_255_1_234
10
1.5847444
20
9.1259387
11
1.5847444
21
9.2480211
0
LINE
8
DEFAULT_255_1_234
10
1.5847444
20
9.2480211
11
2.3750674
21
9.2480211
0
LINE
8
DEFAULT_255_1_234
10
2.1766835
20
6.6030243
11
2.2031882
21
6.6030243
0
LINE
8
DEFAULT_255_1_234
10
2.2031882
20
6.6030243
11
2.2031882
21
6.476926
0
LINE
8
DEFAULT_255_1_234
10
2.2031882
20
6.476926
11
2.1758803
21
6.476926
0
LINE
8
DEFAULT_255_1_234
10
1.6289189
20
5.8777583
11
1.6289189
21
5.9347836
0
LINE
8
DEFAULT_255_1_234
10
1.7783093
20
5.9155075
11
1.7783093
21
5.8608917
0
ARC
8
DEFAULT_255_1_234
10
2.1811151
20
5.9771455
40
0.4998079
50
90.6001036
51
104.514704
0
ARC
8
DEFAULT_255_1_234
10
2.1422667
20
6.1216131
40
0.3502176
50
104.2855254
51
133.862935
0
ARC
8
DEFAULT_255_1_234
10
2.1586424
20
6.110783
40
0.3693984
50
134.5302688
51
161.6210873
0
ARC
8
DEFAULT_255_1_234
10
2.3239613
20
6.0524895
40
0.5446739
50
161.2849839
51
174.2076652
0
ARC
8
DEFAULT_255_1_234
10
2.464655
20
6.0330787
40
0.6866274
50
173.7810589
51
174.9254635
0
ARC
8
DEFAULT_255_1_234
10
2.0096382
20
5.8947839
40
0.3033419
50
95.8330959
51
138.9954921
0
ARC
8
DEFAULT_255_1_234
10
2.0319738
20
5.7669375
40
0.4328947
50
89.8753725
51
97.0544009
0
ARC
8
DEFAULT_255_1_234
10
2.0367204
20
5.8504748
40
0.3493769
50
71.6407809
51
90.6240094
0
ARC
8
DEFAULT_255_1_234
10
2.0517777
20
5.9059082
40
0.2920396
50
39.6367836
51
71.019018
0
ARC
8
DEFAULT_255_1_234
10
1.988125
20
5.8508998
40
0.3761538
50
10.658731
51
39.9043955
0
ARC
8
DEFAULT_255_1_234
10
1.8333333
20
5.8172686
40
0.5345136
50
359.682601
51
11.132623
0
ARC
8
DEFAULT_255_1_234
10
1.8293464
20
5.810201
40
0.5385081
50
347.2486944
51
0.4369317
0
ARC
8
DEFAULT_255_1_234
10
1.9960941
20
5.7700807
40
0.3670249
50
318.1409698
51
347.6118597
0
ARC
8
DEFAULT_255_1_234
10
2.0285934
20
5.7433702
40
0.3250007
50
275.6342139
51
317.8248465
0
ARC
8
DEFAULT_255_1_234
10
2.0065045
20
5.8733219
40
0.4565864
50
269.8874292
51
276.7917694
0
ARC
8
DEFAULT_255_1_234
10
2.0010116
20
5.7707743
40
0.3540676
50
246.9140195
51
270.7437342
0
ARC
8
DEFAULT_255_1_234
10
2.0016506
20
5.7565384
40
0.3412781
50
218.1665114
51
245.878116
0
ARC
8
DEFAULT_255_1_234
10
2.0895967
20
5.8301279
40
0.455911
50
191.4115814
51
218.6077802
0
ARC
8
DEFAULT_255_1_234
10
2.2834056
20
5.8735833
40
0.6545001
50
179.6345085
51
191.7836486
0
ARC
8
DEFAULT_255_1_234
10
2.8416393
20
5.9414697
40
1.2127388
50
171.4525249
51
180.3158839
0
ARC
8
DEFAULT_255_1_234
10
2.4021269
20
6.0098608
40
0.7679464
50
157.9802646
51
171.6246686
0
ARC
8
DEFAULT_255_1_234
10
2.180729
20
6.0981421
40
0.5296008
50
141.4298019
51
157.854097
0
ARC
8
DEFAULT_255_1_234
10
2.116561
20
6.1435381
40
0.4511509
50
102.8715806
51
140.8564722
0
ARC
8
DEFAULT_255_1_234
10
2.1813226
20
5.8995552
40
0.7034845
50
90.3778349
51
103.5869322
0
ARC
8
DEFAULT_255_1_234
10
2.0075002
20
5.839073
40
0.2370698
50
89.8751008
51
126.2071704
0
ARC
8
DEFAULT_255_1_234
10
2.0120792
20
5.8236303
40
0.2522934
50
124.9745049
51
144.895901
0
ARC
8
DEFAULT_255_1_234
10
1.9944982
20
5.837956
40
0.2296779
50
145.2974905
51
160.2660252
0
ARC
8
DEFAULT_255_1_234
10
2.3017521
20
5.8577071
40
0.5234525
50
179.6514266
51
190.2855912
0
ARC
8
DEFAULT_255_1_234
10
2.1323658
20
5.8257786
40
0.3510893
50
190.0945431
51
207.5098196
0
ARC
8
DEFAULT_255_1_234
10
2.0757928
20
5.7988623
40
0.288489
50
207.9583163
51
216.3251085
0
ARC
8
DEFAULT_255_1_234
10
2.0418036
20
5.7709105
40
0.2445587
50
215.7661442
51
232.5456785
0
ARC
8
DEFAULT_255_1_234
10
2.0035019
20
5.7222482
40
0.1826382
50
232.8005391
51
270.6605633
0
ARC
8
DEFAULT_255_1_234
10
2.008072
20
5.7586612
40
0.2190529
50
269.35537
51
288.4744281
0
ARC
8
DEFAULT_255_1_234
10
2.0173617
20
5.7237118
40
0.1829749
50
289.1833337
51
322.9683818
0
ARC
8
DEFAULT_255_1_234
10
1.9562139
20
5.7719391
40
0.2608399
50
322.6007884
51
346.5182367
0
ARC
8
DEFAULT_255_1_234
10
1.8404735
20
5.8014616
40
0.3802777
50
346.2582162
51
358.7741648
0
ARC
8
DEFAULT_255_1_234
10
1.7386404
20
5.8069965
40
0.4822176
50
358.3755224
51
0.0098023
0
ARC
8
DEFAULT_255_1_234
10
1.8142591
20
5.8097657
40
0.4066078
50
359.6214041
51
11.2839074
0
ARC
8
DEFAULT_255_1_234
10
1.9419738
20
5.8364066
40
0.2761514
50
11.0482309
51
31.8146458
0
ARC
8
DEFAULT_255_1_234
10
1.9728781
20
5.8531584
40
0.2410679
50
32.3035391
51
38.082671
0
ARC
8
DEFAULT_255_1_234
10
2.0149441
20
5.8912662
40
0.1844966
50
36.825067
51
85.7415724
0
ARC
8
DEFAULT_255_1_234
10
2.0082274
20
5.8412301
40
0.2349122
50
85.0140713
51
90.0513278
0
ENDSEC
0
EOF