0
SECTION
2
HEADER
9
$MEASUREMENT
70
1
0
ENDSEC
0
SECTION
2
TABLES
0
TABLE
2
LTYPE
0
LTYPE
72
65
70
64
2
CONTINUOUS
3
______
73
0
40
0
0
ENDTAB
0
TABLE
2
LAYER
0
LAYER
2
DEFAULT_255_1_234
70
0
62
255
6
CONTINUOUS
0
LAYER
2
DEFAULT_255_2_778
70
0
62
255
6
CONTINUOUS
0
ENDTAB
0
ENDSEC
0
SECTION
2
ENTITIES
0
LINE
8
DEFAULT_255_1_234
10
6.5745137
20
0.3897433
11
6.5745137
21
-0.7853
0
LINE
8
DEFAULT_255_1_234
10
6.5745137
20
-0.7853
11
6.4251234
21
-0.7853
0
LINE
8
DEFAULT_255_1_234
10
6.4251234
20
-0.7853
11
6.4251234
21
0.2050133
0
LINE
8
DEFAULT_255_1_234
10
6.4251234
20
0.2050133
11
6.1255396
21
0.0949785
0
LINE
8
DEFAULT_255_1_234
10
6.1255396
20
0.0949785
11
6.1255396
21
0.2299117
0
LINE
8
DEFAULT_255_1_234
10
6.1255396
20
0.2299117
11
6.5512217
21
0.3897433
0
LINE
8
DEFAULT_255_1_234
10
6.5512217
20
0.3897433
11
6.5745137
21
0.3897433
0
LINE
8
DEFAULT_255_1_234
10
7.2033988
20
0.3841211
11
7.2033988
21
-0.6592017
0
LINE
8
DEFAULT_255_1_234
10
7.2033988
20
-0.6592017
11
7.7575888
21
-0.6592017
0
LINE
8
DEFAULT_255_1_234
10
7.7575888
20
-0.6592017
11
7.7575888
21
-0.7853
0
LINE
8
DEFAULT_255_1_234
10
7.7575888
20
-0.7853
11
7.0483863
21
-0.7853
0
LINE
8
DEFAULT_255_1_234
10
7.0483863
20
-0.7853
11
7.0483863
21
0.3841211
0
LINE
8
DEFAULT_255_1_234
10
7.0483863
20
0.3841211
11
7.2033988
21
0.3841211
0
LINE
8
DEFAULT_255_1_234
10
6.2994137
20
-2.2558567
11
6.2994137
21
-3.4309
0
LINE
8
DEFAULT_255_1_234
10
6.2994137
20
-3.4309
11
6.1500234
21
-3.4309
0
LINE
8
DEFAULT_255_1_234
10
6.1500234
20
-3.4309
11
6.1500234
21
-2.4405867
0
LINE
8
DEFAULT_255_1_234
10
6.1500234
20
-2.4405867
11
5.8504396
21
-2.5506215
0
LINE
8
DEFAULT_255_1_234
10
5.8504396
20
-2.5506215
11
5.8504396
21
-2.4156883
0
LINE
8
DEFAULT_255_1_234
10
5.8504396
20
-2.4156883
11
6.2761217
21
-2.2558567
0
LINE
8
DEFAULT_255_1_234
10
6.2761217
20
-2.2558567
11
6.2994137
21
-2.2558567
0
LINE
8
DEFAULT_255_1_234
10
7.6720378
20
-2.2614789
11
7.6720378
21
-3.4309
0
LINE
8
DEFAULT_255_1_234
10
7.6720378
20
-3.4309
11
7.5170252
21
-3.4309
0
LINE
8
DEFAULT_255_1_234
10
7.5170252
20
-3.4309
11
6.9282988
21
-2.529739
0
LINE
8
DEFAULT_255_1_234
10
6.9282988
20
-2.529739
11
6.9282988
21
-3.4309
0
LINE
8
DEFAULT_255_1_234
10
6.9282988
20
-3.4309
11
6.7732863
21
-3.4309
0
LINE
8
DEFAULT_255_1_234
10
6.7732863
20
-3.4309
11
6.7732863
21
-2.2614789
0
LINE
8
DEFAULT_255_1_234
10
6.7732863
20
-2.2614789
11
6.9282988
21
-2.2614789
0
LINE
8
DEFAULT_255_1_234
10
6.9282988
20
-2.2614789
11
7.5186316
21
-3.1666558
0
LINE
8
DEFAULT_255_1_234
10
7.5186316
20
-3.1666558
11
7.5186316
21
-2.2614789
0
LINE
8
DEFAULT_255_1_234
10
7.5186316
20
-2.2614789
11
7.6720378
21
-2.2614789
0
ARC
8
DEFAULT_255_2_778
10
4.0315384
20
-2.3325549
40
0.6112863
50
89.6006698
51
107.2492907
0
ARC
8
DEFAULT_255_2_778
10
4.0156355
20
-2.264643
40
0.5417358
50
107.7728541
51
148.8751555
0
ARC
8
DEFAULT_255_2_778
10
4.2016076
20
-2.3746979
40
0.7578264
50
149.0201743
51
180.6075337
0
ARC
8
DEFAULT_255_2_778
10
4.1798879
20
-2.3947991
40
0.7361631
50
179.0608801
51
216.6822639
0
ARC
8
DEFAULT_255_2_778
10
4.0112493
20
-2.5085219
40
0.5330715
50
217.7076532
51
253.0931519
0
ARC
8
DEFAULT_255_2_778
10
4.0317869
20
-2.430379
40
0.6138175
50
253.3802176
51
270.3744837
0
ARC
8
DEFAULT_255_2_778
10
4.0315384
20
-3.6554549
40
0.6112863
50
89.6006698
51
107.2492907
0
ARC
8
DEFAULT_255_2_778
10
4.0156355
20
-3.587543
40
0.5417358
50
107.7728541
51
148.8751555
0
ARC
8
DEFAULT_255_2_778
10
4.2016076
20
-3.6975979
40
0.7578264
50
149.0201743
51
180.6075337
0
ARC
8
DEFAULT_255_2_778
10
4.1798879
20
-3.7176991
40
0.7361631
50
179.0608801
51
216.6822639
0
ARC
8
DEFAULT_255_2_778
10
4.0112493
20
-3.8314219
40
0.5330715
50
217.7076532
51
253.0931519
0
ARC
8
DEFAULT_255_2_778
10
4.0317869
20
-3.753279
40
0.6138175
50
253.3802176
51
270.3744837
0
LINE
8
DEFAULT_255_2_778
10
10.0499988
20
-1.7212834
11
4.0357988
21
-1.7212834
0
LINE
8
DEFAULT_255_2_778
10
4.0357988
20
-4.3670834
11
10.0499988
21
-4.3670834
0
ENDSEC
0
EOF