0
SECTION
2
HEADER
9
$MEASUREMENT
70
1
0
ENDSEC
0
SECTION
2
TABLES
0
TABLE
2
LTYPE
0
LTYPE
72
65
70
64
2
CONTINUOUS
3
______
73
0
40
0
0
ENDTAB
0
TABLE
2
LAYER
0
LAYER
2
DEFAULT_255_1_234
70
0
62
255
6
CONTINUOUS
0
LAYER
2
DEFAULT_255_2_778
70
0
62
255
6
CONTINUOUS
0
ENDTAB
0
ENDSEC
0
SECTION
2
ENTITIES
0
LINE
8
DEFAULT_255_1_234
10
3.2019489
20
15.8626211
11
3.2019489
21
14.8192983
0
LINE
8
DEFAULT_255_1_234
10
3.2019489
20
14.8192983
11
3.7561389
21
14.8192983
0
LINE
8
DEFAULT_255_1_234
10
3.7561389
20
14.8192983
11
3.7561389
21
14.6932
0
LINE
8
DEFAULT_255_1_234
10
3.7561389
20
14.6932
11
3.0469364
21
14.6932
0
LINE
8
DEFAULT_255_1_234
10
3.0469364
20
14.6932
11
3.0469364
21
15.8626211
0
LINE
8
DEFAULT_255_1_234
10
3.0469364
20
15.8626211
11
3.2019489
21
15.8626211
0
LINE
8
DEFAULT_255_1_234
10
4.8307854
20
15.8626211
11
4.8307854
21
14.6932
0
LINE
8
DEFAULT_255_1_234
10
4.8307854
20
14.6932
11
4.6757729
21
14.6932
0
LINE
8
DEFAULT_255_1_234
10
4.6757729
20
14.6932
11
4.0870465
21
15.594361
0
LINE
8
DEFAULT_255_1_234
10
4.0870465
20
15.594361
11
4.0870465
21
14.6932
0
LINE
8
DEFAULT_255_1_234
10
4.0870465
20
14.6932
11
3.9320339
21
14.6932
0
LINE
8
DEFAULT_255_1_234
10
3.9320339
20
14.6932
11
3.9320339
21
15.8626211
0
LINE
8
DEFAULT_255_1_234
10
3.9320339
20
15.8626211
11
4.0870465
21
15.8626211
0
LINE
8
DEFAULT_255_1_234
10
4.0870465
20
15.8626211
11
4.6773792
21
14.9574442
0
LINE
8
DEFAULT_255_1_234
10
4.6773792
20
14.9574442
11
4.6773792
21
15.8626211
0
LINE
8
DEFAULT_255_1_234
10
4.6773792
20
15.8626211
11
4.8307854
21
15.8626211
0
LINE
8
DEFAULT_255_1_234
10
3.5479265
20
-0.7926724
11
3.5479265
21
-1.1340212
0
LINE
8
DEFAULT_255_1_234
10
3.5479265
20
-1.1340212
11
3.874015
21
-1.1340212
0
LINE
8
DEFAULT_255_1_234
10
3.874015
20
-1.1340212
11
3.874015
21
-1.2745767
0
LINE
8
DEFAULT_255_1_234
10
3.874015
20
-1.2745767
11
3.5479265
21
-1.2745767
0
LINE
8
DEFAULT_255_1_234
10
3.5479265
20
-1.2745767
11
3.5479265
21
-1.6440366
0
LINE
8
DEFAULT_255_1_234
10
3.5479265
20
-1.6440366
11
3.3985361
21
-1.6440366
0
LINE
8
DEFAULT_255_1_234
10
3.3985361
20
-1.6440366
11
3.3985361
21
-1.2745767
0
LINE
8
DEFAULT_255_1_234
10
3.3985361
20
-1.2745767
11
3.0724476
21
-1.2745767
0
LINE
8
DEFAULT_255_1_234
10
3.0724476
20
-1.2745767
11
3.0724476
21
-1.1340212
0
LINE
8
DEFAULT_255_1_234
10
3.0724476
20
-1.1340212
11
3.3985361
21
-1.1340212
0
LINE
8
DEFAULT_255_1_234
10
3.3985361
20
-1.1340212
11
3.3985361
21
-0.7926724
0
LINE
8
DEFAULT_255_1_234
10
3.3985361
20
-0.7926724
11
3.5479265
21
-0.7926724
0
LINE
8
DEFAULT_255_1_234
10
4.3639511
20
-1.2038974
11
4.3639511
21
-1.3251766
0
LINE
8
DEFAULT_255_1_234
10
4.3639511
20
-1.3251766
11
3.9720022
21
-1.3251766
0
LINE
8
DEFAULT_255_1_234
10
3.9720022
20
-1.3251766
11
3.9720022
21
-1.2038974
0
LINE
8
DEFAULT_255_1_234
10
3.9720022
20
-1.2038974
11
4.3639511
21
-1.2038974
0
LINE
8
DEFAULT_255_2_778
10
1.9563169
20
13.7574831
11
15.1855169
21
13.7574831
0
LINE
8
DEFAULT_255_2_778
10
15.1855169
20
13.7574831
11
15.1855169
21
0.5282831
0
LINE
8
DEFAULT_255_2_778
10
15.1855169
20
0.5282831
11
1.9563169
21
0.5282831
0
LINE
8
DEFAULT_255_2_778
10
1.9563169
20
0.5282831
11
1.9563169
21
13.7574831
0
LINE
8
DEFAULT_255_2_778
10
15.1855169
20
13.7574831
11
1.9563169
21
0.5282831
0
ARC
8
DEFAULT_255_2_778
10
7.8101251
20
9.0825217
40
5.0654008
50
152.1734044
51
153.4541634
0
ARC
8
DEFAULT_255_2_778
10
6.9879065
20
9.517419
40
4.1352511
50
150.4828936
51
152.1844654
0
ARC
8
DEFAULT_255_2_778
10
6.233976
20
9.9448981
40
3.2685625
50
148.4060313
51
150.4924826
0
ARC
8
DEFAULT_255_2_778
10
5.6246162
20
10.3197871
40
2.5531179
50
146.0987541
51
148.4078812
0
ARC
8
DEFAULT_255_2_778
10
5.1419902
20
10.6447158
40
1.971305
50
143.2472694
51
146.1132811
0
ARC
8
DEFAULT_255_2_778
10
4.7576564
20
10.932199
40
1.4913477
50
139.7934766
51
143.2614003
0
ARC
8
DEFAULT_255_2_778
10
4.4586906
20
11.1857779
40
1.0993246
50
135.2459656
51
139.8282973
0
ARC
8
DEFAULT_255_2_778
10
4.2357056
20
11.4077408
40
0.784699
50
129.2192684
51
135.2918168
0
ARC
8
DEFAULT_255_2_778
10
4.0873806
20
11.590318
40
0.5494667
50
121.2010355
51
129.2744957
0
ARC
8
DEFAULT_255_2_778
10
4.0015173
20
11.7334147
40
0.3825882
50
109.5722888
51
121.303853
0
ARC
8
DEFAULT_255_2_778
10
3.9667354
20
11.8328921
40
0.2772075
50
90.3270633
51
109.6864471
0
ARC
8
DEFAULT_255_2_778
10
3.9599531
20
11.8209796
40
0.2891621
50
55.4946895
51
88.9696129
0
ARC
8
DEFAULT_255_2_778
10
3.8285191
20
11.6140888
40
0.5341844
50
43.8436585
51
56.4481211
0
ARC
8
DEFAULT_255_2_778
10
3.5283015
20
11.3216445
40
0.9532899
50
36.1984028
51
44.021671
0
ARC
8
DEFAULT_255_2_778
10
2.9487305
20
10.8933015
40
1.6739656
50
31.4713324
51
36.3140241
0
ARC
8
DEFAULT_255_2_778
10
1.7729228
20
10.1722627
40
3.0532481
50
28.257939
51
31.4923292
0
ARC
8
DEFAULT_255_2_778
10
-3.9357714
20
7.1361098
40
9.5190933
50
26.2501418
51
28.0869125
0
ARC
8
DEFAULT_255_2_778
10
12.8317219
20
15.4008033
40
9.1745956
50
206.2267812
51
208.196259
0
ARC
8
DEFAULT_255_2_778
10
7.2367455
20
12.4096326
40
2.8302527
50
208.3453992
51
212.1909444
0
ARC
8
DEFAULT_255_2_778
10
6.0916357
20
11.6882102
40
1.4768396
50
212.1725248
51
217.928979
0
ARC
8
DEFAULT_255_2_778
10
5.5781903
20
11.2864795
40
0.8249112
50
217.8409301
51
226.5445221
0
ARC
8
DEFAULT_255_2_778
10
5.3292926
20
11.02099
40
0.4610045
50
226.3053787
51
241.0013566
0
ARC
8
DEFAULT_255_2_778
10
5.2409274
20
10.859115
40
0.2765877
50
240.7552229
51
269.4171817
0
ARC
8
DEFAULT_255_2_778
10
5.2366152
20
10.8590047
40
0.2764671
50
270.3106158
51
289.317329
0
ARC
8
DEFAULT_255_2_778
10
5.203104
20
10.9563666
40
0.3794336
50
289.2293294
51
301.0916656
0
ARC
8
DEFAULT_255_2_778
10
5.1173012
20
11.1003987
40
0.5470845
50
300.9971069
51
309.2804736
0
ARC
8
DEFAULT_255_2_778
10
4.9683728
20
11.2839748
40
0.7834725
50
309.211275
51
315.2476315
0
ARC
8
DEFAULT_255_2_778
10
4.7521901
20
11.4997319
40
1.0888988
50
315.1940049
51
319.6079277
0
ARC
8
DEFAULT_255_2_778
10
4.4540567
20
11.7538839
40
1.4806599
50
319.5934371
51
323.2876754
0
ARC
8
DEFAULT_255_2_778
10
4.0539683
20
12.0531632
40
1.9802981
50
323.2661362
51
326.1904249
0
ARC
8
DEFAULT_255_2_778
10
3.5719061
20
12.3771051
40
2.5610921
50
326.1697401
51
328.3958882
0
ARC
8
DEFAULT_255_2_778
10
2.9762963
20
12.74357
40
3.2604114
50
328.3961219
51
330.4630031
0
ARC
8
DEFAULT_255_2_778
10
2.2543255
20
13.1537022
40
4.0907424
50
330.4502673
51
332.0511185
0
ARC
8
DEFAULT_255_2_778
10
1.4323372
20
13.5901506
40
5.0214153
50
332.0477947
51
333.4580727
0
LINE
8
DEFAULT_255_2_778
10
7.3803335
20
1.1898183
11
6.7188335
21
0.5283183
0
LINE
8
DEFAULT_255_2_778
10
6.7188335
20
0.5283183
11
7.3803335
21
-0.1330817
0
LINE
8
DEFAULT_255_2_778
10
9.7615335
20
1.1898183
11
10.4230335
21
0.5283183
0
LINE
8
DEFAULT_255_2_778
10
10.4230335
20
0.5283183
11
9.7615335
21
-0.1330817
0
LINE
8
DEFAULT_255_2_778
10
11.2162335
20
3.7033183
11
13.8620335
21
3.7033183
0
LINE
8
DEFAULT_255_2_778
10
11.2162335
20
2.6450183
11
11.7454335
21
2.6450183
0
LINE
8
DEFAULT_255_2_778
10
12.2745335
20
2.6450183
11
12.8037335
21
2.6450183
0
LINE
8
DEFAULT_255_2_778
10
13.3329335
20
2.6450183
11
13.8620335
21
2.6450183
0
LINE
8
DEFAULT_255_1_234
10
17.0415344
20
11.1822091
11
16.7660458
21
11.1822091
0
LINE
8
DEFAULT_255_1_234
10
16.7660458
20
11.1822091
11
16.7660458
21
10.7244
0
LINE
8
DEFAULT_255_1_234
10
16.7660458
20
10.7244
11
16.6118364
21
10.7244
0
LINE
8
DEFAULT_255_1_234
10
16.6118364
20
10.7244
11
16.6118364
21
11.8938211
0
LINE
8
DEFAULT_255_1_234
10
16.6118364
20
11.8938211
11
17.0431407
21
11.8938211
0
LINE
8
DEFAULT_255_1_234
10
16.7660458
20
11.7669196
11
16.7660458
21
11.3083074
0
LINE
8
DEFAULT_255_1_234
10
16.7660458
20
11.3083074
11
17.0431407
21
11.3083074
0
LINE
8
DEFAULT_255_1_234
10
17.0519756
20
11.7669196
11
16.7660458
21
11.7669196
0
ARC
8
DEFAULT_255_1_234
10
17.0473534
20
11.2879195
40
0.6059162
50
78.8378113
51
90.3983573
0
ARC
8
DEFAULT_255_1_234
10
17.0889548
20
11.4899879
40
0.3996205
50
58.9632738
51
79.0810598
0
ARC
8
DEFAULT_255_1_234
10
17.119109
20
11.5459721
40
0.3361177
50
48.0197965
51
58.447194
0
ARC
8
DEFAULT_255_1_234
10
17.1279951
20
11.5545225
40
0.3238191
50
3.3375044
51
48.1766626
0
ARC
8
DEFAULT_255_1_234
10
17.004979
20
11.5368171
40
0.4477806
50
359.9477528
51
4.6829065
0
ARC
8
DEFAULT_255_1_234
10
17.0173107
20
11.5325628
40
0.4354656
50
346.1877825
51
0.5060252
0
ARC
8
DEFAULT_255_1_234
10
17.1531975
20
11.4972731
40
0.295089
50
310.8831995
51
346.5426355
0
ARC
8
DEFAULT_255_1_234
10
17.1223395
20
11.5389695
40
0.3468331
50
286.6925341
51
310.2288297
0
ARC
8
DEFAULT_255_1_234
10
17.0654226
20
11.7179882
40
0.5346654
50
274.6850312
51
287.0245141
0
ARC
8
DEFAULT_255_1_234
10
17.0428949
20
11.9388932
40
0.7566852
50
269.8969846
51
275.018904
0
ARC
8
DEFAULT_255_1_234
10
17.045654
20
11.7309707
40
0.4226708
50
269.6593078
51
279.4153575
0
ARC
8
DEFAULT_255_1_234
10
17.0713815
20
11.5819133
40
0.2714146
50
279.2049762
51
294.9900808
0
ARC
8
DEFAULT_255_1_234
10
17.1004141
20
11.5171508
40
0.2004525
50
295.2888114
51
311.2911209
0
ARC
8
DEFAULT_255_1_234
10
17.1075035
20
11.506622
40
0.1878703
50
311.7854996
51
347.2861051
0
ARC
8
DEFAULT_255_1_234
10
17.0091194
20
11.5319092
40
0.2894234
50
346.6893224
51
0.1059443
0
ARC
8
DEFAULT_255_1_234
10
16.9336089
20
11.5347685
40
0.3649409
50
359.6350983
51
0.0053152
0
ARC
8
DEFAULT_255_1_234
10
17.0306417
20
11.5372937
40
0.2679199
50
359.4672059
51
15.5933957
0
ARC
8
DEFAULT_255_1_234
10
17.0931306
20
11.5541779
40
0.2031932
50
15.7442113
51
46.6203375
0
ARC
8
DEFAULT_255_1_234
10
17.0783527
20
11.5371484
40
0.2257226
50
46.8628658
51
75.6676503
0
ARC
8
DEFAULT_255_1_234
10
17.0489347
20
11.4312718
40
0.3355939
50
75.276167
51
88.2915297
0
ARC
8
DEFAULT_255_1_234
10
17.0431054
20
11.3434524
40
0.4235602
50
87.8575022
51
88.8000139
0
LINE
8
DEFAULT_255_1_234
10
18.310549
20
11.3910343
11
18.310549
21
11.264936
0
LINE
8
DEFAULT_255_1_234
10
18.310549
20
11.264936
11
17.8037463
21
11.264936
0
LINE
8
DEFAULT_255_1_234
10
17.8037463
20
11.264936
11
17.8037463
21
10.8504983
0
LINE
8
DEFAULT_255_1_234
10
17.8037463
20
10.8504983
11
18.3924728
21
10.8504983
0
LINE
8
DEFAULT_255_1_234
10
18.3924728
20
10.8504983
11
18.3924728
21
10.7244
0
LINE
8
DEFAULT_255_1_234
10
18.3924728
20
10.7244
11
17.649537
21
10.7244
0
LINE
8
DEFAULT_255_1_234
10
17.649537
20
10.7244
11
17.649537
21
11.8938211
0
LINE
8
DEFAULT_255_1_234
10
17.649537
20
11.8938211
11
18.384441
21
11.8938211
0
LINE
8
DEFAULT_255_1_234
10
18.384441
20
11.8938211
11
18.384441
21
11.7669196
0
LINE
8
DEFAULT_255_1_234
10
18.384441
20
11.7669196
11
17.8037463
21
11.7669196
0
LINE
8
DEFAULT_255_1_234
10
17.8037463
20
11.7669196
11
17.8037463
21
11.3910343
0
LINE
8
DEFAULT_255_1_234
10
17.8037463
20
11.3910343
11
18.310549
21
11.3910343
0
ENDSEC
0
EOF