0
SECTION
2
HEADER
9
$MEASUREMENT
70
1
0
ENDSEC
0
SECTION
2
TABLES
0
TABLE
2
LTYPE
0
LTYPE
72
65
70
64
2
CONTINUOUS
3
______
73
0
40
0
0
ENDTAB
0
TABLE
2
LAYER
0
LAYER
2
DEFAULT_255_1_234
70
0
62
255
6
CONTINUOUS
0
LAYER
2
DEFAULT_255_2_778
70
0
62
255
6
CONTINUOUS
0
ENDTAB
0
ENDSEC
0
SECTION
2
ENTITIES
0
LINE
8
DEFAULT_255_1_234
10
4.7085137
20
9.3370433
11
4.7085137
21
8.162
0
LINE
8
DEFAULT_255_1_234
10
4.7085137
20
8.162
11
4.5591234
21
8.162
0
LINE
8
DEFAULT_255_1_234
10
4.5591234
20
8.162
11
4.5591234
21
9.1523133
0
LINE
8
DEFAULT_255_1_234
10
4.5591234
20
9.1523133
11
4.2595396
21
9.0422785
0
LINE
8
DEFAULT_255_1_234
10
4.2595396
20
9.0422785
11
4.2595396
21
9.1772117
0
LINE
8
DEFAULT_255_1_234
10
4.2595396
20
9.1772117
11
4.6852217
21
9.3370433
0
LINE
8
DEFAULT_255_1_234
10
4.6852217
20
9.3370433
11
4.7085137
21
9.3370433
0
LINE
8
DEFAULT_255_1_234
10
5.3373988
20
9.3314211
11
5.3373988
21
8.2880983
0
LINE
8
DEFAULT_255_1_234
10
5.3373988
20
8.2880983
11
5.8915888
21
8.2880983
0
LINE
8
DEFAULT_255_1_234
10
5.8915888
20
8.2880983
11
5.8915888
21
8.162
0
LINE
8
DEFAULT_255_1_234
10
5.8915888
20
8.162
11
5.1823863
21
8.162
0
LINE
8
DEFAULT_255_1_234
10
5.1823863
20
8.162
11
5.1823863
21
9.3314211
0
LINE
8
DEFAULT_255_1_234
10
5.1823863
20
9.3314211
11
5.3373988
21
9.3314211
0
LINE
8
DEFAULT_255_1_234
10
6.5172612
20
9.3370433
11
6.5172612
21
8.162
0
LINE
8
DEFAULT_255_1_234
10
6.5172612
20
8.162
11
6.3678708
21
8.162
0
LINE
8
DEFAULT_255_1_234
10
6.3678708
20
8.162
11
6.3678708
21
9.1523133
0
LINE
8
DEFAULT_255_1_234
10
6.3678708
20
9.1523133
11
6.068287
21
9.0422785
0
LINE
8
DEFAULT_255_1_234
10
6.068287
20
9.0422785
11
6.068287
21
9.1772117
0
LINE
8
DEFAULT_255_1_234
10
6.068287
20
9.1772117
11
6.4939691
21
9.3370433
0
LINE
8
DEFAULT_255_1_234
10
6.4939691
20
9.3370433
11
6.5172612
21
9.3370433
0
LINE
8
DEFAULT_255_1_234
10
7.8898853
20
9.3314211
11
7.8898853
21
8.162
0
LINE
8
DEFAULT_255_1_234
10
7.8898853
20
8.162
11
7.7348727
21
8.162
0
LINE
8
DEFAULT_255_1_234
10
7.7348727
20
8.162
11
7.1461463
21
9.063161
0
LINE
8
DEFAULT_255_1_234
10
7.1461463
20
9.063161
11
7.1461463
21
8.162
0
LINE
8
DEFAULT_255_1_234
10
7.1461463
20
8.162
11
6.9911337
21
8.162
0
LINE
8
DEFAULT_255_1_234
10
6.9911337
20
8.162
11
6.9911337
21
9.3314211
0
LINE
8
DEFAULT_255_1_234
10
6.9911337
20
9.3314211
11
7.1461463
21
9.3314211
0
LINE
8
DEFAULT_255_1_234
10
7.1461463
20
9.3314211
11
7.7364791
21
8.4262442
0
LINE
8
DEFAULT_255_1_234
10
7.7364791
20
8.4262442
11
7.7364791
21
9.3314211
0
LINE
8
DEFAULT_255_1_234
10
7.7364791
20
9.3314211
11
7.8898853
21
9.3314211
0
LINE
8
DEFAULT_255_1_234
10
4.9864119
20
-1.7206208
11
4.9864119
21
-1.8419
0
LINE
8
DEFAULT_255_1_234
10
4.9864119
20
-1.8419
11
4.220184
21
-1.8419
0
LINE
8
DEFAULT_255_1_234
10
4.220184
20
-1.8419
11
4.220184
21
-1.7350779
0
LINE
8
DEFAULT_255_1_234
10
4.220184
20
-1.7350779
11
4.6249836
21
-1.2853005
0
LINE
8
DEFAULT_255_1_234
10
4.3462823
20
-1.0170405
11
4.1976952
21
-1.0170405
0
LINE
8
DEFAULT_255_1_234
10
4.7125296
20
-1.3808782
11
4.3992918
21
-1.7206208
0
LINE
8
DEFAULT_255_1_234
10
4.3992918
20
-1.7206208
11
4.9864119
21
-1.7206208
0
ARC
8
DEFAULT_255_1_234
10
3.275967
20
-0.0923473
40
1.8008286
50
318.5132453
51
320.7828378
0
ARC
8
DEFAULT_255_1_234
10
3.8046644
20
-0.5226574
40
1.1191493
50
320.7372736
51
323.9737074
0
ARC
8
DEFAULT_255_1_234
10
4.1966501
20
-0.8066639
40
0.6350923
50
323.8961724
51
328.6421089
0
ARC
8
DEFAULT_255_1_234
10
4.4013096
20
-0.9328969
40
0.3946393
50
328.8299013
51
331.789948
0
ARC
8
DEFAULT_255_1_234
10
4.5010274
20
-0.9843491
40
0.2824501
50
331.4255242
51
352.9364833
0
ARC
8
DEFAULT_255_1_234
10
4.5146775
20
-0.9874024
40
0.2685315
50
353.2248685
51
0.0169286
0
ARC
8
DEFAULT_255_1_234
10
4.5356652
20
-0.985105
40
0.2475536
50
359.4866256
51
15.9339782
0
ARC
8
DEFAULT_255_1_234
10
4.5863637
20
-0.9714714
40
0.1950618
50
16.1714718
51
43.5284424
0
ARC
8
DEFAULT_255_1_234
10
4.5940946
20
-0.9637427
40
0.184134
50
43.4415429
51
83.1661404
0
ARC
8
DEFAULT_255_1_234
10
4.5806864
20
-1.0374229
40
0.258926
50
82.160215
51
90.1505798
0
ARC
8
DEFAULT_255_1_234
10
4.5775291
20
-1.0911135
40
0.3126255
50
89.5460705
51
102.5418777
0
ARC
8
DEFAULT_255_1_234
10
4.5532377
20
-0.9880335
40
0.2067346
50
102.1739365
51
129.2061916
0
ARC
8
DEFAULT_255_1_234
10
4.5453449
20
-0.9755906
40
0.1921118
50
129.7279328
51
135.7542026
0
ARC
8
DEFAULT_255_1_234
10
4.5574977
20
-0.9852955
40
0.2075944
50
136.175737
51
166.3674722
0
ARC
8
DEFAULT_255_1_234
10
4.6581896
20
-1.0122818
40
0.3118201
50
165.9092917
51
178.8683903
0
ARC
8
DEFAULT_255_1_234
10
4.7446757
20
-1.0169821
40
0.3983935
50
178.438168
51
180.0083905
0
ARC
8
DEFAULT_255_1_234
10
4.6045359
20
-1.0130769
40
0.4068601
50
163.2878735
51
180.5581814
0
ARC
8
DEFAULT_255_1_234
10
4.5243621
20
-0.991016
40
0.3237344
50
133.454115
51
162.9470031
0
ARC
8
DEFAULT_255_1_234
10
4.5422162
20
-1.01
40
0.349795
50
100.7869394
51
133.4384016
0
ARC
8
DEFAULT_255_1_234
10
4.5769934
20
-1.1648681
40
0.5084616
50
89.6605301
51
101.3704185
0
ARC
8
DEFAULT_255_1_234
10
4.5836273
20
-1.1587504
40
0.502348
50
78.2171172
51
90.4130393
0
ARC
8
DEFAULT_255_1_234
10
4.6191351
20
-0.9963363
40
0.3361092
50
55.9268222
51
78.4888551
0
ARC
8
DEFAULT_255_1_234
10
4.6387791
20
-0.9624676
40
0.2970617
50
47.9292255
51
55.4054003
0
ARC
8
DEFAULT_255_1_234
10
4.6489352
20
-0.9521498
40
0.2825983
50
4.3347696
51
48.0560701
0
ARC
8
DEFAULT_255_1_234
10
4.5393745
20
-0.9691399
40
0.393225
50
359.925209
51
5.5967654
0
ARC
8
DEFAULT_255_1_234
10
4.5822637
20
-0.9635184
40
0.3503892
50
337.8914096
51
358.9967724
0
ARC
8
DEFAULT_255_1_234
10
4.3109049
20
-0.8588294
40
0.6412172
50
326.9135351
51
338.3505194
0
ARC
8
DEFAULT_255_1_234
10
3.9123353
20
-0.6033716
40
1.1146189
50
319.6472867
51
327.095818
0
ARC
8
DEFAULT_255_1_234
10
3.5290356
20
-0.2872
40
1.6114559
50
317.2586784
51
319.9046139
0
LINE
8
DEFAULT_255_1_234
10
5.3373988
20
-0.6724789
11
5.3373988
21
-1.7158017
0
LINE
8
DEFAULT_255_1_234
10
5.3373988
20
-1.7158017
11
5.8915888
21
-1.7158017
0
LINE
8
DEFAULT_255_1_234
10
5.8915888
20
-1.7158017
11
5.8915888
21
-1.8419
0
LINE
8
DEFAULT_255_1_234
10
5.8915888
20
-1.8419
11
5.1823863
21
-1.8419
0
LINE
8
DEFAULT_255_1_234
10
5.1823863
20
-1.8419
11
5.1823863
21
-0.6724789
0
LINE
8
DEFAULT_255_1_234
10
5.1823863
20
-0.6724789
11
5.3373988
21
-0.6724789
0
LINE
8
DEFAULT_255_1_234
10
6.7951593
20
-1.7206208
11
6.7951593
21
-1.8419
0
LINE
8
DEFAULT_255_1_234
10
6.7951593
20
-1.8419
11
6.0289315
21
-1.8419
0
LINE
8
DEFAULT_255_1_234
10
6.0289315
20
-1.8419
11
6.0289315
21
-1.7350779
0
LINE
8
DEFAULT_255_1_234
10
6.0289315
20
-1.7350779
11
6.4337311
21
-1.2853005
0
LINE
8
DEFAULT_255_1_234
10
6.1550298
20
-1.0170405
11
6.0064426
21
-1.0170405
0
LINE
8
DEFAULT_255_1_234
10
6.5212771
20
-1.3808782
11
6.2080393
21
-1.7206208
0
LINE
8
DEFAULT_255_1_234
10
6.2080393
20
-1.7206208
11
6.7951593
21
-1.7206208
0
ARC
8
DEFAULT_255_1_234
10
5.0847144
20
-0.0923473
40
1.8008286
50
318.5132453
51
320.7828378
0
ARC
8
DEFAULT_255_1_234
10
5.6134119
20
-0.5226574
40
1.1191493
50
320.7372736
51
323.9737074
0
ARC
8
DEFAULT_255_1_234
10
6.0053975
20
-0.8066639
40
0.6350923
50
323.8961724
51
328.6421089
0
ARC
8
DEFAULT_255_1_234
10
6.2100571
20
-0.9328969
40
0.3946393
50
328.8299013
51
331.789948
0
ARC
8
DEFAULT_255_1_234
10
6.3097749
20
-0.9843491
40
0.2824501
50
331.4255242
51
352.9364833
0
ARC
8
DEFAULT_255_1_234
10
6.323425
20
-0.9874024
40
0.2685315
50
353.2248685
51
0.0169286
0
ARC
8
DEFAULT_255_1_234
10
6.3444126
20
-0.985105
40
0.2475536
50
359.4866256
51
15.9339782
0
ARC
8
DEFAULT_255_1_234
10
6.3951112
20
-0.9714714
40
0.1950618
50
16.1714718
51
43.5284424
0
ARC
8
DEFAULT_255_1_234
10
6.402842
20
-0.9637427
40
0.184134
50
43.4415429
51
83.1661404
0
ARC
8
DEFAULT_255_1_234
10
6.3894339
20
-1.0374229
40
0.258926
50
82.160215
51
90.1505798
0
ARC
8
DEFAULT_255_1_234
10
6.3862766
20
-1.0911135
40
0.3126255
50
89.5460705
51
102.5418777
0
ARC
8
DEFAULT_255_1_234
10
6.3619852
20
-0.9880335
40
0.2067346
50
102.1739365
51
129.2061916
0
ARC
8
DEFAULT_255_1_234
10
6.3540924
20
-0.9755906
40
0.1921118
50
129.7279328
51
135.7542026
0
ARC
8
DEFAULT_255_1_234
10
6.3662451
20
-0.9852955
40
0.2075944
50
136.175737
51
166.3674722
0
ARC
8
DEFAULT_255_1_234
10
6.4669371
20
-1.0122818
40
0.3118201
50
165.9092917
51
178.8683903
0
ARC
8
DEFAULT_255_1_234
10
6.5534232
20
-1.0169821
40
0.3983935
50
178.438168
51
180.0083905
0
ARC
8
DEFAULT_255_1_234
10
6.4132834
20
-1.0130769
40
0.4068601
50
163.2878735
51
180.5581814
0
ARC
8
DEFAULT_255_1_234
10
6.3331095
20
-0.991016
40
0.3237344
50
133.454115
51
162.9470031
0
ARC
8
DEFAULT_255_1_234
10
6.3509637
20
-1.01
40
0.349795
50
100.7869394
51
133.4384016
0
ARC
8
DEFAULT_255_1_234
10
6.3857408
20
-1.1648681
40
0.5084616
50
89.6605301
51
101.3704185
0
ARC
8
DEFAULT_255_1_234
10
6.3923747
20
-1.1587504
40
0.502348
50
78.2171172
51
90.4130393
0
ARC
8
DEFAULT_255_1_234
10
6.4278825
20
-0.9963363
40
0.3361092
50
55.9268222
51
78.4888551
0
ARC
8
DEFAULT_255_1_234
10
6.4475266
20
-0.9624676
40
0.2970617
50
47.9292255
51
55.4054003
0
ARC
8
DEFAULT_255_1_234
10
6.4576826
20
-0.9521498
40
0.2825983
50
4.3347696
51
48.0560701
0
ARC
8
DEFAULT_255_1_234
10
6.348122
20
-0.9691399
40
0.393225
50
359.925209
51
5.5967654
0
ARC
8
DEFAULT_255_1_234
10
6.3910112
20
-0.9635184
40
0.3503892
50
337.8914096
51
358.9967724
0
ARC
8
DEFAULT_255_1_234
10
6.1196524
20
-0.8588294
40
0.6412172
50
326.9135351
51
338.3505194
0
ARC
8
DEFAULT_255_1_234
10
5.7210827
20
-0.6033716
40
1.1146189
50
319.6472867
51
327.095818
0
ARC
8
DEFAULT_255_1_234
10
5.3377831
20
-0.2872
40
1.6114559
50
317.2586784
51
319.9046139
0
LINE
8
DEFAULT_255_1_234
10
7.8898853
20
-0.6724789
11
7.8898853
21
-1.8419
0
LINE
8
DEFAULT_255_1_234
10
7.8898853
20
-1.8419
11
7.7348727
21
-1.8419
0
LINE
8
DEFAULT_255_1_234
10
7.7348727
20
-1.8419
11
7.1461463
21
-0.940739
0
LINE
8
DEFAULT_255_1_234
10
7.1461463
20
-0.940739
11
7.1461463
21
-1.8419
0
LINE
8
DEFAULT_255_1_234
10
7.1461463
20
-1.8419
11
6.9911337
21
-1.8419
0
LINE
8
DEFAULT_255_1_234
10
6.9911337
20
-1.8419
11
6.9911337
21
-0.6724789
0
LINE
8
DEFAULT_255_1_234
10
6.9911337
20
-0.6724789
11
7.1461463
21
-0.6724789
0
LINE
8
DEFAULT_255_1_234
10
7.1461463
20
-0.6724789
11
7.7364791
21
-1.5776558
0
LINE
8
DEFAULT_255_1_234
10
7.7364791
20
-1.5776558
11
7.7364791
21
-0.6724789
0
LINE
8
DEFAULT_255_1_234
10
7.7364791
20
-0.6724789
11
7.8898853
21
-0.6724789
0
ARC
8
DEFAULT_255_2_778
10
12.7872477
20
2.5849354
40
0.5652914
50
1.7788547
51
67.1686008
0
ARC
8
DEFAULT_255_2_778
10
12.6940191
20
2.4308705
40
0.7439198
50
65.1546228
51
90.250495
0
ARC
8
DEFAULT_255_2_778
10
12.6852595
20
2.445175
40
0.7296289
50
89.5675301
51
122.3796379
0
ARC
8
DEFAULT_255_2_778
10
12.5787086
20
2.5909797
40
0.5495623
50
121.1386776
51
178.8005915
0
ARC
8
DEFAULT_255_2_778
10
11.4642261
20
2.5849348
40
0.5653131
50
1.7788515
51
67.1635702
0
ARC
8
DEFAULT_255_2_778
10
11.3711074
20
2.4311231
40
0.7436671
50
65.1503445
51
90.2496772
0
ARC
8
DEFAULT_255_2_778
10
11.3623263
20
2.4451434
40
0.7296608
50
89.5649363
51
122.3789485
0
ARC
8
DEFAULT_255_2_778
10
11.2557841
20
2.5910204
40
0.549537
50
121.1425267
51
178.8047899
0
ARC
8
DEFAULT_255_2_778
10
10.1413261
20
2.5849348
40
0.5653131
50
1.7788515
51
67.1635702
0
ARC
8
DEFAULT_255_2_778
10
10.0482074
20
2.4311231
40
0.7436671
50
65.1503445
51
90.2496772
0
ARC
8
DEFAULT_255_2_778
10
10.0394263
20
2.4451434
40
0.7296608
50
89.5649363
51
122.3789485
0
ARC
8
DEFAULT_255_2_778
10
9.9328841
20
2.5910204
40
0.549537
50
121.1425267
51
178.8047899
0
ARC
8
DEFAULT_255_2_778
10
8.8184261
20
2.5849348
40
0.5653131
50
1.7788515
51
67.1635702
0
ARC
8
DEFAULT_255_2_778
10
8.7253074
20
2.4311231
40
0.7436671
50
65.1503445
51
90.2496772
0
ARC
8
DEFAULT_255_2_778
10
8.7165263
20
2.4451434
40
0.7296608
50
89.5649363
51
122.3789485
0
ARC
8
DEFAULT_255_2_778
10
8.6099841
20
2.5910204
40
0.549537
50
121.1425267
51
178.8047899
0
ARC
8
DEFAULT_255_2_778
10
12.7873194
20
5.0877607
40
0.5652177
50
292.8266737
51
358.2280269
0
ARC
8
DEFAULT_255_2_778
10
12.6940305
20
5.2420419
40
0.7440658
50
269.7486807
51
294.8392056
0
ARC
8
DEFAULT_255_2_778
10
12.6852595
20
5.2275913
40
0.7296289
50
237.6203621
51
270.4324699
0
ARC
8
DEFAULT_255_2_778
10
12.5787086
20
5.0817866
40
0.5495623
50
181.1994085
51
238.8613224
0
ARC
8
DEFAULT_255_2_778
10
11.4642977
20
5.0877614
40
0.5652393
50
292.8317043
51
358.22803
0
ARC
8
DEFAULT_255_2_778
10
11.3711187
20
5.2417892
40
0.7438131
50
269.749498
51
294.843483
0
ARC
8
DEFAULT_255_2_778
10
11.3623263
20
5.2276229
40
0.7296608
50
237.6210515
51
270.4350637
0
ARC
8
DEFAULT_255_2_778
10
11.2557841
20
5.0817459
40
0.549537
50
181.1952101
51
238.8574733
0
ARC
8
DEFAULT_255_2_778
10
10.1413977
20
5.0877614
40
0.5652393
50
292.8317043
51
358.22803
0
ARC
8
DEFAULT_255_2_778
10
10.0482187
20
5.2417892
40
0.7438131
50
269.749498
51
294.843483
0
ARC
8
DEFAULT_255_2_778
10
10.0394263
20
5.2276229
40
0.7296608
50
237.6210515
51
270.4350637
0
ARC
8
DEFAULT_255_2_778
10
9.9328841
20
5.0817459
40
0.549537
50
181.1952101
51
238.8574733
0
ARC
8
DEFAULT_255_2_778
10
8.8184977
20
5.0877614
40
0.5652393
50
292.8317043
51
358.22803
0
ARC
8
DEFAULT_255_2_778
10
8.7253187
20
5.2417892
40
0.7438131
50
269.749498
51
294.843483
0
ARC
8
DEFAULT_255_2_778
10
8.7165263
20
5.2276229
40
0.7296608
50
237.6210515
51
270.4350637
0
ARC
8
DEFAULT_255_2_778
10
8.6099841
20
5.0817459
40
0.549537
50
181.1952101
51
238.8574733
0
LINE
8
DEFAULT_255_2_778
10
13.3522667
20
-2.7781169
11
13.3522667
21
2.6024831
0
LINE
8
DEFAULT_255_2_778
10
8.0605667
20
2.6024831
11
8.0605667
21
-2.7781169
0
LINE
8
DEFAULT_255_2_778
10
13.3522667
20
10.4510831
11
13.3522667
21
5.0702831
0
LINE
8
DEFAULT_255_2_778
10
8.0605667
20
5.0702831
11
8.0605667
21
10.4510831
0
LINE
8
DEFAULT_255_2_778
10
12.1700907
20
6.3867749
11
9.2514907
21
1.3766749
0
LINE
8
DEFAULT_255_2_778
10
11.6324792
20
6.217776
11
12.5584792
21
7.011476
0
LINE
8
DEFAULT_255_2_778
10
12.5584792
20
7.011476
11
12.2939792
21
5.853876
0
LINE
8
DEFAULT_255_2_778
10
12.2939792
20
5.853876
11
11.6324792
21
6.217776
0
ENDSEC
0
EOF