0
SECTION
2
HEADER
9
$MEASUREMENT
70
1
0
ENDSEC
0
SECTION
2
TABLES
0
TABLE
2
LTYPE
0
LTYPE
72
65
70
64
2
CONTINUOUS
3
______
73
0
40
0
0
ENDTAB
0
TABLE
2
LAYER
0
LAYER
2
DEFAULT_255_1_234
70
0
62
255
6
CONTINUOUS
0
LAYER
2
DEFAULT_255_2_778_3
70
0
62
255
6
CONTINUOUS
0
LAYER
2
DEFAULT_255_2_778
70
0
62
255
6
CONTINUOUS
0
ENDTAB
0
ENDSEC
0
SECTION
2
ENTITIES
0
LINE
8
DEFAULT_255_1_234
10
4.7085137
20
9.3370433
11
4.7085137
21
8.162
0
LINE
8
DEFAULT_255_1_234
10
4.7085137
20
8.162
11
4.5591234
21
8.162
0
LINE
8
DEFAULT_255_1_234
10
4.5591234
20
8.162
11
4.5591234
21
9.1523133
0
LINE
8
DEFAULT_255_1_234
10
4.5591234
20
9.1523133
11
4.2595396
21
9.0422785
0
LINE
8
DEFAULT_255_1_234
10
4.2595396
20
9.0422785
11
4.2595396
21
9.1772117
0
LINE
8
DEFAULT_255_1_234
10
4.2595396
20
9.1772117
11
4.6852217
21
9.3370433
0
LINE
8
DEFAULT_255_1_234
10
4.6852217
20
9.3370433
11
4.7085137
21
9.3370433
0
LINE
8
DEFAULT_255_1_234
10
5.3373988
20
9.3314211
11
5.3373988
21
8.2880983
0
LINE
8
DEFAULT_255_1_234
10
5.3373988
20
8.2880983
11
5.8915888
21
8.2880983
0
LINE
8
DEFAULT_255_1_234
10
5.8915888
20
8.2880983
11
5.8915888
21
8.162
0
LINE
8
DEFAULT_255_1_234
10
5.8915888
20
8.162
11
5.1823863
21
8.162
0
LINE
8
DEFAULT_255_1_234
10
5.1823863
20
8.162
11
5.1823863
21
9.3314211
0
LINE
8
DEFAULT_255_1_234
10
5.1823863
20
9.3314211
11
5.3373988
21
9.3314211
0
LINE
8
DEFAULT_255_1_234
10
6.5172612
20
9.3370433
11
6.5172612
21
8.162
0
LINE
8
DEFAULT_255_1_234
10
6.5172612
20
8.162
11
6.3678708
21
8.162
0
LINE
8
DEFAULT_255_1_234
10
6.3678708
20
8.162
11
6.3678708
21
9.1523133
0
LINE
8
DEFAULT_255_1_234
10
6.3678708
20
9.1523133
11
6.068287
21
9.0422785
0
LINE
8
DEFAULT_255_1_234
10
6.068287
20
9.0422785
11
6.068287
21
9.1772117
0
LINE
8
DEFAULT_255_1_234
10
6.068287
20
9.1772117
11
6.4939691
21
9.3370433
0
LINE
8
DEFAULT_255_1_234
10
6.4939691
20
9.3370433
11
6.5172612
21
9.3370433
0
LINE
8
DEFAULT_255_1_234
10
7.8898853
20
9.3314211
11
7.8898853
21
8.162
0
LINE
8
DEFAULT_255_1_234
10
7.8898853
20
8.162
11
7.7348727
21
8.162
0
LINE
8
DEFAULT_255_1_234
10
7.7348727
20
8.162
11
7.1461463
21
9.063161
0
LINE
8
DEFAULT_255_1_234
10
7.1461463
20
9.063161
11
7.1461463
21
8.162
0
LINE
8
DEFAULT_255_1_234
10
7.1461463
20
8.162
11
6.9911337
21
8.162
0
LINE
8
DEFAULT_255_1_234
10
6.9911337
20
8.162
11
6.9911337
21
9.3314211
0
LINE
8
DEFAULT_255_1_234
10
6.9911337
20
9.3314211
11
7.1461463
21
9.3314211
0
LINE
8
DEFAULT_255_1_234
10
7.1461463
20
9.3314211
11
7.7364791
21
8.4262442
0
LINE
8
DEFAULT_255_1_234
10
7.7364791
20
8.4262442
11
7.7364791
21
9.3314211
0
LINE
8
DEFAULT_255_1_234
10
7.7364791
20
9.3314211
11
7.8898853
21
9.3314211
0
LINE
8
DEFAULT_255_1_234
10
4.9864119
20
-1.7206208
11
4.9864119
21
-1.8419
0
LINE
8
DEFAULT_255_1_234
10
4.9864119
20
-1.8419
11
4.220184
21
-1.8419
0
LINE
8
DEFAULT_255_1_234
10
4.220184
20
-1.8419
11
4.220184
21
-1.7350779
0
LINE
8
DEFAULT_255_1_234
10
4.220184
20
-1.7350779
11
4.6249836
21
-1.2853005
0
LINE
8
DEFAULT_255_1_234
10
4.3462823
20
-1.0170405
11
4.1976952
21
-1.0170405
0
LINE
8
DEFAULT_255_1_234
10
4.7125296
20
-1.3808782
11
4.3992918
21
-1.7206208
0
LINE
8
DEFAULT_255_1_234
10
4.3992918
20
-1.7206208
11
4.9864119
21
-1.7206208
0
ARC
8
DEFAULT_255_1_234
10
3.275967
20
-0.0923473
40
1.8008286
50
318.5132453
51
320.7828378
0
ARC
8
DEFAULT_255_1_234
10
3.8046644
20
-0.5226574
40
1.1191493
50
320.7372736
51
323.9737074
0
ARC
8
DEFAULT_255_1_234
10
4.1966501
20
-0.8066639
40
0.6350923
50
323.8961724
51
328.6421089
0
ARC
8
DEFAULT_255_1_234
10
4.4013096
20
-0.9328969
40
0.3946393
50
328.8299013
51
331.789948
0
ARC
8
DEFAULT_255_1_234
10
4.5010274
20
-0.9843491
40
0.2824501
50
331.4255242
51
352.9364833
0
ARC
8
DEFAULT_255_1_234
10
4.5146775
20
-0.9874024
40
0.2685315
50
353.2248685
51
0.0169286
0
ARC
8
DEFAULT_255_1_234
10
4.5356652
20
-0.985105
40
0.2475536
50
359.4866256
51
15.9339782
0
ARC
8
DEFAULT_255_1_234
10
4.5863637
20
-0.9714714
40
0.1950618
50
16.1714718
51
43.5284424
0
ARC
8
DEFAULT_255_1_234
10
4.5940946
20
-0.9637427
40
0.184134
50
43.4415429
51
83.1661404
0
ARC
8
DEFAULT_255_1_234
10
4.5806864
20
-1.0374229
40
0.258926
50
82.160215
51
90.1505798
0
ARC
8
DEFAULT_255_1_234
10
4.5775291
20
-1.0911135
40
0.3126255
50
89.5460705
51
102.5418777
0
ARC
8
DEFAULT_255_1_234
10
4.5532377
20
-0.9880335
40
0.2067346
50
102.1739365
51
129.2061916
0
ARC
8
DEFAULT_255_1_234
10
4.5453449
20
-0.9755906
40
0.1921118
50
129.7279328
51
135.7542026
0
ARC
8
DEFAULT_255_1_234
10
4.5574977
20
-0.9852955
40
0.2075944
50
136.175737
51
166.3674722
0
ARC
8
DEFAULT_255_1_234
10
4.6581896
20
-1.0122818
40
0.3118201
50
165.9092917
51
178.8683903
0
ARC
8
DEFAULT_255_1_234
10
4.7446757
20
-1.0169821
40
0.3983935
50
178.438168
51
180.0083905
0
ARC
8
DEFAULT_255_1_234
10
4.6045359
20
-1.0130769
40
0.4068601
50
163.2878735
51
180.5581814
0
ARC
8
DEFAULT_255_1_234
10
4.5243621
20
-0.991016
40
0.3237344
50
133.454115
51
162.9470031
0
ARC
8
DEFAULT_255_1_234
10
4.5422162
20
-1.01
40
0.349795
50
100.7869394
51
133.4384016
0
ARC
8
DEFAULT_255_1_234
10
4.5769934
20
-1.1648681
40
0.5084616
50
89.6605301
51
101.3704185
0
ARC
8
DEFAULT_255_1_234
10
4.5836273
20
-1.1587504
40
0.502348
50
78.2171172
51
90.4130393
0
ARC
8
DEFAULT_255_1_234
10
4.6191351
20
-0.9963363
40
0.3361092
50
55.9268222
51
78.4888551
0
ARC
8
DEFAULT_255_1_234
10
4.6387791
20
-0.9624676
40
0.2970617
50
47.9292255
51
55.4054003
0
ARC
8
DEFAULT_255_1_234
10
4.6489352
20
-0.9521498
40
0.2825983
50
4.3347696
51
48.0560701
0
ARC
8
DEFAULT_255_1_234
10
4.5393745
20
-0.9691399
40
0.393225
50
359.925209
51
5.5967654
0
ARC
8
DEFAULT_255_1_234
10
4.5822637
20
-0.9635184
40
0.3503892
50
337.8914096
51
358.9967724
0
ARC
8
DEFAULT_255_1_234
10
4.3109049
20
-0.8588294
40
0.6412172
50
326.9135351
51
338.3505194
0
ARC
8
DEFAULT_255_1_234
10
3.9123353
20
-0.6033716
40
1.1146189
50
319.6472867
51
327.095818
0
ARC
8
DEFAULT_255_1_234
10
3.5290356
20
-0.2872
40
1.6114559
50
317.2586784
51
319.9046139
0
LINE
8
DEFAULT_255_1_234
10
5.3373988
20
-0.6724789
11
5.3373988
21
-1.7158017
0
LINE
8
DEFAULT_255_1_234
10
5.3373988
20
-1.7158017
11
5.8915888
21
-1.7158017
0
LINE
8
DEFAULT_255_1_234
10
5.8915888
20
-1.7158017
11
5.8915888
21
-1.8419
0
LINE
8
DEFAULT_255_1_234
10
5.8915888
20
-1.8419
11
5.1823863
21
-1.8419
0
LINE
8
DEFAULT_255_1_234
10
5.1823863
20
-1.8419
11
5.1823863
21
-0.6724789
0
LINE
8
DEFAULT_255_1_234
10
5.1823863
20
-0.6724789
11
5.3373988
21
-0.6724789
0
LINE
8
DEFAULT_255_1_234
10
6.7951593
20
-1.7206208
11
6.7951593
21
-1.8419
0
LINE
8
DEFAULT_255_1_234
10
6.7951593
20
-1.8419
11
6.0289315
21
-1.8419
0
LINE
8
DEFAULT_255_1_234
10
6.0289315
20
-1.8419
11
6.0289315
21
-1.7350779
0
LINE
8
DEFAULT_255_1_234
10
6.0289315
20
-1.7350779
11
6.4337311
21
-1.2853005
0
LINE
8
DEFAULT_255_1_234
10
6.1550298
20
-1.0170405
11
6.0064426
21
-1.0170405
0
LINE
8
DEFAULT_255_1_234
10
6.5212771
20
-1.3808782
11
6.2080393
21
-1.7206208
0
LINE
8
DEFAULT_255_1_234
10
6.2080393
20
-1.7206208
11
6.7951593
21
-1.7206208
0
ARC
8
DEFAULT_255_1_234
10
5.0847144
20
-0.0923473
40
1.8008286
50
318.5132453
51
320.7828378
0
ARC
8
DEFAULT_255_1_234
10
5.6134119
20
-0.5226574
40
1.1191493
50
320.7372736
51
323.9737074
0
ARC
8
DEFAULT_255_1_234
10
6.0053975
20
-0.8066639
40
0.6350923
50
323.8961724
51
328.6421089
0
ARC
8
DEFAULT_255_1_234
10
6.2100571
20
-0.9328969
40
0.3946393
50
328.8299013
51
331.789948
0
ARC
8
DEFAULT_255_1_234
10
6.3097749
20
-0.9843491
40
0.2824501
50
331.4255242
51
352.9364833
0
ARC
8
DEFAULT_255_1_234
10
6.323425
20
-0.9874024
40
0.2685315
50
353.2248685
51
0.0169286
0
ARC
8
DEFAULT_255_1_234
10
6.3444126
20
-0.985105
40
0.2475536
50
359.4866256
51
15.9339782
0
ARC
8
DEFAULT_255_1_234
10
6.3951112
20
-0.9714714
40
0.1950618
50
16.1714718
51
43.5284424
0
ARC
8
DEFAULT_255_1_234
10
6.402842
20
-0.9637427
40
0.184134
50
43.4415429
51
83.1661404
0
ARC
8
DEFAULT_255_1_234
10
6.3894339
20
-1.0374229
40
0.258926
50
82.160215
51
90.1505798
0
ARC
8
DEFAULT_255_1_234
10
6.3862766
20
-1.0911135
40
0.3126255
50
89.5460705
51
102.5418777
0
ARC
8
DEFAULT_255_1_234
10
6.3619852
20
-0.9880335
40
0.2067346
50
102.1739365
51
129.2061916
0
ARC
8
DEFAULT_255_1_234
10
6.3540924
20
-0.9755906
40
0.1921118
50
129.7279328
51
135.7542026
0
ARC
8
DEFAULT_255_1_234
10
6.3662451
20
-0.9852955
40
0.2075944
50
136.175737
51
166.3674722
0
ARC
8
DEFAULT_255_1_234
10
6.4669371
20
-1.0122818
40
0.3118201
50
165.9092917
51
178.8683903
0
ARC
8
DEFAULT_255_1_234
10
6.5534232
20
-1.0169821
40
0.3983935
50
178.438168
51
180.0083905
0
ARC
8
DEFAULT_255_1_234
10
6.4132834
20
-1.0130769
40
0.4068601
50
163.2878735
51
180.5581814
0
ARC
8
DEFAULT_255_1_234
10
6.3331095
20
-0.991016
40
0.3237344
50
133.454115
51
162.9470031
0
ARC
8
DEFAULT_255_1_234
10
6.3509637
20
-1.01
40
0.349795
50
100.7869394
51
133.4384016
0
ARC
8
DEFAULT_255_1_234
10
6.3857408
20
-1.1648681
40
0.5084616
50
89.6605301
51
101.3704185
0
ARC
8
DEFAULT_255_1_234
10
6.3923747
20
-1.1587504
40
0.502348
50
78.2171172
51
90.4130393
0
ARC
8
DEFAULT_255_1_234
10
6.4278825
20
-0.9963363
40
0.3361092
50
55.9268222
51
78.4888551
0
ARC
8
DEFAULT_255_1_234
10
6.4475266
20
-0.9624676
40
0.2970617
50
47.9292255
51
55.4054003
0
ARC
8
DEFAULT_255_1_234
10
6.4576826
20
-0.9521498
40
0.2825983
50
4.3347696
51
48.0560701
0
ARC
8
DEFAULT_255_1_234
10
6.348122
20
-0.9691399
40
0.393225
50
359.925209
51
5.5967654
0
ARC
8
DEFAULT_255_1_234
10
6.3910112
20
-0.9635184
40
0.3503892
50
337.8914096
51
358.9967724
0
ARC
8
DEFAULT_255_1_234
10
6.1196524
20
-0.8588294
40
0.6412172
50
326.9135351
51
338.3505194
0
ARC
8
DEFAULT_255_1_234
10
5.7210827
20
-0.6033716
40
1.1146189
50
319.6472867
51
327.095818
0
ARC
8
DEFAULT_255_1_234
10
5.3377831
20
-0.2872
40
1.6114559
50
317.2586784
51
319.9046139
0
LINE
8
DEFAULT_255_1_234
10
7.8898853
20
-0.6724789
11
7.8898853
21
-1.8419
0
LINE
8
DEFAULT_255_1_234
10
7.8898853
20
-1.8419
11
7.7348727
21
-1.8419
0
LINE
8
DEFAULT_255_1_234
10
7.7348727
20
-1.8419
11
7.1461463
21
-0.940739
0
LINE
8
DEFAULT_255_1_234
10
7.1461463
20
-0.940739
11
7.1461463
21
-1.8419
0
LINE
8
DEFAULT_255_1_234
10
7.1461463
20
-1.8419
11
6.9911337
21
-1.8419
0
LINE
8
DEFAULT_255_1_234
10
6.9911337
20
-1.8419
11
6.9911337
21
-0.6724789
0
LINE
8
DEFAULT_255_1_234
10
6.9911337
20
-0.6724789
11
7.1461463
21
-0.6724789
0
LINE
8
DEFAULT_255_1_234
10
7.1461463
20
-0.6724789
11
7.7364791
21
-1.5776558
0
LINE
8
DEFAULT_255_1_234
10
7.7364791
20
-1.5776558
11
7.7364791
21
-0.6724789
0
LINE
8
DEFAULT_255_1_234
10
7.7364791
20
-0.6724789
11
7.8898853
21
-0.6724789
0
LINE
8
DEFAULT_255_2_778_3
10
8.0605667
20
3.8365
11
13.3522667
21
3.8365
0
ARC
8
DEFAULT_255_2_778
10
8.5558666
20
5.0272046
40
0.4953175
50
179.5166395
51
201.3679384
0
ARC
8
DEFAULT_255_2_778
10
8.5838135
20
5.0591246
40
0.5333318
50
203.4679363
51
250.4136922
0
ARC
8
DEFAULT_255_2_778
10
8.7171871
20
5.3575683
40
0.8595988
50
248.7064205
51
270.3219157
0
ARC
8
DEFAULT_255_2_778
10
8.7311025
20
5.3255378
40
0.8276045
50
269.370973
51
297.1970588
0
ARC
8
DEFAULT_255_2_778
10
8.8926474
20
5.0306026
40
0.4915232
50
296.1614541
51
349.1626507
0
ARC
8
DEFAULT_255_2_778
10
8.8549447
20
5.0301585
40
0.5285235
50
349.9784472
51
0.1327573
0
ARC
8
DEFAULT_255_2_778
10
9.8787666
20
5.0272046
40
0.4953175
50
179.5166395
51
201.3679384
0
ARC
8
DEFAULT_255_2_778
10
9.9067135
20
5.0591246
40
0.5333318
50
203.4679363
51
250.4136922
0
ARC
8
DEFAULT_255_2_778
10
10.0400871
20
5.3575683
40
0.8595988
50
248.7064205
51
270.3219157
0
ARC
8
DEFAULT_255_2_778
10
10.0540025
20
5.3255378
40
0.8276045
50
269.370973
51
297.1970588
0
ARC
8
DEFAULT_255_2_778
10
10.2155474
20
5.0306026
40
0.4915232
50
296.1614541
51
349.1626507
0
ARC
8
DEFAULT_255_2_778
10
10.1778447
20
5.0301585
40
0.5285235
50
349.9784472
51
0.1327573
0
ARC
8
DEFAULT_255_2_778
10
11.2020044
20
5.027197
40
0.4956553
50
179.5160966
51
201.3583153
0
ARC
8
DEFAULT_255_2_778
10
11.2300031
20
5.0592579
40
0.5337698
50
203.469328
51
250.5378449
0
ARC
8
DEFAULT_255_2_778
10
11.3629421
20
5.3577045
40
0.8598472
50
248.8113797
51
270.3178513
0
LINE
8
DEFAULT_255_2_778
10
11.3677122
20
4.4978706
11
11.3678167
21
4.4978706
0
ARC
8
DEFAULT_255_2_778
10
11.3767975
20
5.3254048
40
0.8275829
50
269.3782253
51
297.2060025
0
ARC
8
DEFAULT_255_2_778
10
11.5383249
20
5.0306274
40
0.4916485
50
296.1701866
51
349.1622869
0
ARC
8
DEFAULT_255_2_778
10
11.5007129
20
5.0301595
40
0.5285553
50
349.9787541
51
0.132647
0
ARC
8
DEFAULT_255_2_778
10
12.5245349
20
5.0272047
40
0.4952857
50
179.5166232
51
201.3693984
0
ARC
8
DEFAULT_255_2_778
10
12.5525291
20
5.059153
40
0.5333551
50
203.4701709
51
250.4157629
0
ARC
8
DEFAULT_255_2_778
10
12.6859361
20
5.3576902
40
0.8597207
50
248.7079464
51
270.3219386
0
ARC
8
DEFAULT_255_2_778
10
12.6998528
20
5.3256619
40
0.8277286
50
269.3710482
51
297.1929475
0
ARC
8
DEFAULT_255_2_778
10
12.8614383
20
5.0306202
40
0.491535
50
296.1560147
51
349.1602687
0
ARC
8
DEFAULT_255_2_778
10
12.8237722
20
5.0301594
40
0.528496
50
349.9773142
51
0.1326685
0
ARC
8
DEFAULT_255_2_778
10
12.8569986
20
2.6458616
40
0.4952857
50
359.5166232
51
21.3693984
0
ARC
8
DEFAULT_255_2_778
10
12.8290044
20
2.6139133
40
0.5333551
50
23.4701709
51
70.4157629
0
ARC
8
DEFAULT_255_2_778
10
12.6955974
20
2.3153761
40
0.8597207
50
68.7079464
51
90.3219386
0
ARC
8
DEFAULT_255_2_778
10
12.6816807
20
2.3474044
40
0.8277286
50
89.3710482
51
117.1929475
0
ARC
8
DEFAULT_255_2_778
10
12.5200952
20
2.6424461
40
0.491535
50
116.1560147
51
169.1602687
0
ARC
8
DEFAULT_255_2_778
10
12.5577613
20
2.6429069
40
0.528496
50
169.9773142
51
180.1326685
0
ARC
8
DEFAULT_255_2_778
10
11.5339669
20
2.6458617
40
0.4953175
50
359.5166395
51
21.3679384
0
ARC
8
DEFAULT_255_2_778
10
11.50602
20
2.6139417
40
0.5333318
50
23.4679363
51
70.4136922
0
ARC
8
DEFAULT_255_2_778
10
11.3726464
20
2.315498
40
0.8595988
50
68.7064205
51
90.3219157
0
ARC
8
DEFAULT_255_2_778
10
11.358731
20
2.3475285
40
0.8276045
50
89.370973
51
117.1970588
0
ARC
8
DEFAULT_255_2_778
10
11.1971861
20
2.6424637
40
0.4915232
50
116.1614541
51
169.1626507
0
ARC
8
DEFAULT_255_2_778
10
11.2348888
20
2.6429078
40
0.5285235
50
169.9784472
51
180.1327573
0
ARC
8
DEFAULT_255_2_778
10
10.2108396
20
2.6458659
40
0.4955448
50
359.5163794
51
21.3615269
0
ARC
8
DEFAULT_255_2_778
10
10.1827238
20
2.6137429
40
0.5337927
50
23.4738583
51
70.5403434
0
ARC
8
DEFAULT_255_2_778
10
10.0497543
20
2.3152179
40
0.8599535
50
68.81297
51
90.317672
0
ARC
8
DEFAULT_255_2_778
10
10.0359009
20
2.3476182
40
0.827589
50
89.3757986
51
117.203048
0
ARC
8
DEFAULT_255_2_778
10
9.8743678
20
2.6424473
40
0.4916067
50
116.1672875
51
169.1624208
0
ARC
8
DEFAULT_255_2_778
10
9.9120115
20
2.642907
40
0.5285462
50
169.9786697
51
180.132673
0
ARC
8
DEFAULT_255_2_778
10
8.8881669
20
2.6458617
40
0.4953175
50
359.5166395
51
21.3679384
0
ARC
8
DEFAULT_255_2_778
10
8.86022
20
2.6139417
40
0.5333318
50
23.4679363
51
70.4136922
0
ARC
8
DEFAULT_255_2_778
10
8.7268464
20
2.315498
40
0.8595988
50
68.7064205
51
90.3219157
0
ARC
8
DEFAULT_255_2_778
10
8.712931
20
2.3475285
40
0.8276045
50
89.370973
51
117.1970588
0
ARC
8
DEFAULT_255_2_778
10
8.5513861
20
2.6424637
40
0.4915232
50
116.1614541
51
169.1626507
0
ARC
8
DEFAULT_255_2_778
10
8.5890888
20
2.6429078
40
0.5285235
50
169.9784472
51
180.1327573
0
LINE
8
DEFAULT_255_2_778
10
8.0605667
20
10.4510831
11
8.0605667
21
5.0313831
0
LINE
8
DEFAULT_255_2_778
10
13.3522667
20
5.0313831
11
13.3522667
21
10.4510831
0
LINE
8
DEFAULT_255_2_778
10
13.3522667
20
-2.7781169
11
13.3522667
21
2.6416831
0
LINE
8
DEFAULT_255_2_778
10
8.0605667
20
2.6416831
11
8.0605667
21
-2.7781169
0
ENDSEC
0
EOF